Song name
# A B C D E F G H I J K L M N O P Q R S T U V W X Y Z

Bush - Straight No Chaser tab

#----------------------------------PLEASE NOTE--------------------------------#
#This file is the author's own work and represents their interpretation of the#
#song. You may only use this file for private study, scholarship, or research.#
#-----------------------------------------------------------------------------#
#-- File created with Instab - http://www.pconline.com/~smcarey/instab.html --#
#-----------------------------------------------------------------------------#



Author/Artist: Bush
Title: straight no chaser


Standard Tuning

-|-------------------------------|---------------------------------|----------|
-|-------------------0-----------|---------0-----------0-----------|----------|
-|-1--1--------------6-----6-----|---------------------6-----6-----|----------|
-|-x--x----------------6-6---6---|-x--x-x----------------6-6---6---|----------|
-|-2--2--2-2-2/4-4-4-----------0-|-2--2-2----2-2/4-4-4-----------0-|----------|
-|-------------------------------|-0--0-0--------------------------|----------|
  Intro              P             Intro/Verse         P



-|-----------------------------------------|----------------------------------|
-|-----------------------------------------|----------------------------------|
-|------4----7---------4----7----4----7----|----------------------------------|
-|-7----4----7----7----4----7----4----7----|----------------------------------|
-|-7----2----5----7----2----5----2----5----|----------------------------------|
-|-x----x----x----x----x----x----x----x----|----------------------------------|
  Chorus Chords Strum



-|------------------------|---------------------------|-------|---------------|
-|------------------------|---------------------------|-------|---------------|
-|-6----------------------|--------0------------------|-------|---------------|
-|-x----------------------|-8------0-------------x--x-|-------|---------------|
-|-7----------------------|-x------x-------------4--0-|-------|---------------|
-|-9----------------------|-9------9-------------2--0-|-------|---------------|
   Interlude Chord Strike   Interlude Out Chords Pick   Verse
Tap to rate this tab
 
# A B C D E F G H I J K L M N O P Q R S T U V W X Y Z