Song name
# A B C D E F G H I J K L M N O P Q R S T U V W X Y Z

Bush - Glycerine Acoustic tab

-------------------------------------------------------------------------------
			     Glycerine(acoustic) 
                                    By  
                                   Bush
-------------------------------------------------------------------------------
Tabbed by:Deadeye_419
Email:Lazy_eye_419@hotmail.com
This is my 1st tab its a simple way to play it and sing along its probaly not 
right but it easy and sounds good enjoy
Tuning:EADGBe

e|---------------------------------------------------------------------------|
B|---------------------------------------------------------------------------|
G|---------------------------------------------------------------------------|
D|-----------------7-x-7--7--7-7/9-9-9-9--9-9-9\5-5-5-5--5-5-5---------------|
A|--5-x-5--5--5-5--5-x-5--5--5-5/7-7-7-7--7-7-7\3-3-3-3--3-3-3---------------|
E|--3-x-3--3--3-3------------------------------------------------------------|

e|---------------------------------------------------------------------------|
B|---------------------------------------------------------------------------|
G|---------------------------------------------------------------------------|
D|-----------------7-x-7--7--7-7/9-9-9-9--9-9-9\5-5-5-5--5-5-5---------------|
A|--5-x-5--5--5-5--5-x-5--5--5-5/7-7-7-7--7-7-7\3-3-3-3--3-3-3---------------|
E|--3-x-3--3--3-3------------------------------------------------------------|
             speed it up a bit on this part below
e|---------------------------------------------------------------------------|
B|---------------------------------------------------------------------------|
G|---------------------------------------------------------------------------|
D|------------------7-7-7-7--7-7-7/9-9-9-9--9-9-9\5-5-5-5--5-5-5-------------|
A|--5-5-5-5--5-5-5--5-5-5-5--5-5-5/7-7-7-7--7-7-7\3-3-3-3--3-3-3-------------|
E|--3-3-3-3--3-3-3-----------------------------------------------------------|
                       
e|---------------------------------------------------------------------------|
B|---------------------------------------------------------------------------|
G|---------------------------------------------------------------------------|
D|------------------7-7-7-7--7-7-7/9-9-9-9--9-9-9\5-5-5-5--5-5-5-------------|
A|--5-5-5-5--5-5-5--5-5-5-5--5-5-5/7-7-7-7--7-7-7\3-3-3-3--3-3-3-------------|
E|--3-3-3-3--3-3-3-----------------------------------------------------------|
   (Chorus)
e|------------------------------------|
B|------------------------------------|
G|------------------------------------|
D|-------------x-7-7-x-x\5-5-5-x-x----|
A|--5-x-5-5-5--x-5-5-x-x\3-3-3-x-x----|
E|--3-x-3-3-3-------------------------|

e|------------------------------------|
B|------------------------------------|
G|------------------------------------|
D|-------------x-7-7-x-x\5-5-5-x-x----|
A|--5-x-5-5-5--x-5-5-x-x\3-3-3-x-x----|
E|--3-x-3-3-3-------------------------|
           (Bridge)
e|------------------------------------|
B|------------------------------------|
G|------------------------------------|
D|--9-9-9-9--9-9-9\5-5-5-5--5-5-5-----|
A|--7-7-7-7--7-7-7\3-3-3-3--3-3-3-----|
E|------------------------------------|

e|------------------------------------|
B|------------------------------------|
G|------------------------------------|
D|--9-9-9-9--9-9-9\5-5-5-5--5-5-5-----|
A|--7-7-7-7--7-7-7\3-3-3-3--3-3-3-----|
E|------------------------------------|


e|---------------------------------------------|
B|---------------------------------------------|
G|---------------------------------------------|
D|--9-9-9-9--9-9-9\5-5-5-5--5-5-5-5-5-5-5-5----|
A|--7-7-7-7--7-7-7\3-3-3-3--3-3-3-3-3-3-3-3----|
E|---------------------------------------------|

| /  slide up
| \  slide down
| h  hammer-on
| p  pull-off
| ~  vibrato
| +  harmonic
| x  Mute note
===============================================================================
Tap to rate this tab
# A B C D E F G H I J K L M N O P Q R S T U V W X Y Z