Song name
# A B C D E F G H I J K L M N O P Q R S T U V W X Y Z

Bush - Swallowed tab

-------------------------------------------------------------------------------
                             Swallowed - Bush
-------------------------------------------------------------------------------
Tabbed by:Mauricio javier
Email: fndrmau@hotmail.com 

Tuning:Standard (E,A,D,G,B,e)

GUITAR 1
e|--------------------------------------------------------------|
B|--------------------------------------------------------------|
G|----6----6--------10-----10--------6--6--------10-----10------|
D|-6--6--6------10--10--10--------6--6----6---10-10--10---------|
A|-6--4---------10---8--------0---6--4--------10--8--------0----|
E|-4---------4-/8-----------------4---------4-/8----------------|(x2)

GUITAR 1
e|--------------------------------------------------------------------|
B|--------------------------------------------------------------------|
G|-----------------5-5-5-5-5-5-5-5-6-6-6-6-6-6-6-6-3-3-3-3-3-3-3-3----|
D|-6-6-6-6-6-6-6-6-5-5-5-5-5-5-5-5-6-6-6-6-6-6-6-6-3-3-3-3-3-3-3-3----|
A|-6-6-6-6-6-6-6-6-3-3-3-3-3-3-3-3-4-4-4-4-4-4-4-4-1-1-1-1-1-1-1-1----|
E|-4-4-4-4-4-4-4-4----------------------------------------------------|(x2)

GUITAR 2
e|------------------------------------9-9---9---9------------------------------|
B|-9-9-9-9-9-9-9-9-8-8-8-8-8-8-8-8--9-----9---9---9----11-11----11----11-------|
G|--------------------------------------------------10-------10----10----10----|
D|-----------------------------------------------------------------------------|
A|-----------------------------------------------------------------------------|
E|-----------------------------------------------------------------------------|(x2)

GUITAR 1
e|------------------------------------|
B|------------------------------------|
G|-----------------5-5-5-5-5-5-5-5----|
D|-6-6-6-6-6-6-6-6-5-5-5-5-5-5-5-5----|
A|-6-6-6-6-6-6-6-6-3-3-3-3-3-3-3-3----|
E|-4-4-4-4-4-4-4-4--------------------|(x2)

GUITAR 2
e|---------------------------------------|
B|-9-9-9-9-8-8-8-8-6--6--5--5------------|
G|----------------------------5-5-5-5----|
D|---------------------------------------|
A|---------------------------------------|
E|---------------------------------------|(x2)

GUITAR 1
e|--------------------------------------------------------------|
B|--------------------------------------------------------------|
G|----6----6--------10-----10--------6--6--------10-----10------|
D|-6--6--6------10--10--10--------6--6----6---10-10--10---------|
A|-6--4---------10---8--------0---6--4--------10--8--------0----|
E|-4---------4-/8-----------------4---------4-/8----------------|(x2)

BASS LINE 
e|----------------------------|
B|----------------------------|
G|----------------------------|
D|----------------------------|
A|-----4-4-4---------8-8-8----|
E|-4-4-------6/8-8-8----------|

GUITAR 1
e|------------------------------------------------------|
B|------------------------------------------------------|
G|------6-6-6---------6-6------10--10-----6-6------10---|
D|-6-6--6-6-6-----6-6-6-6---10-10--10-6-6-6-6---10-10---|
A|-6-6--4-4-4-----6-6-4-----10--8-----6-6-4-----10--8---|
E|-4-4------------4-4-----4-/8--------4-4-----4-/8------|

GUITAR 1
e|--------------------------------------------------------------------|
B|--------------------------------------------------------------------|
G|-----------------5-5-5-5-5-5-5-5-6-6-6-6-6-6-6-6-3-3-3-3-3-3-3-3----|
D|-6-6-6-6-6-6-6-6-5-5-5-5-5-5-5-5-6-6-6-6-6-6-6-6-3-3-3-3-3-3-3-3----|
A|-6-6-6-6-6-6-6-6-3-3-3-3-3-3-3-3-4-4-4-4-4-4-4-4-1-1-1-1-1-1-1-1----|
E|-4-4-4-4-4-4-4-4----------------------------------------------------|(x3)

GUITAR 2
e|------------------------------------9-9---9---9------------------------------|
B|-9-9-9-9-9-9-9-9-8-8-8-8-8-8-8-8--9-----9---9---9----11-11----11----11-------|
G|--------------------------------------------------10-------10----10----10----|
D|-----------------------------------------------------------------------------|
A|-----------------------------------------------------------------------------|
E|-----------------------------------------------------------------------------|(x3)

GUITAR 1
e|------------------------------------|
B|------------------------------------|
G|-----------------5-5-5-5-5-5-5-5----|
D|-6-6-6-6-6-6-6-6-5-5-5-5-5-5-5-5----|
A|-6-6-6-6-6-6-6-6-3-3-3-3-3-3-3-3----|
E|-4-4-4-4-4-4-4-4--------------------|(x3)

GUITAR 2
e|---------------------------------------|
B|-9-9-9-9-8-8-8-8-6--6--5--5------------|
G|----------------------------5-5-5-5----|
D|---------------------------------------|
A|---------------------------------------|
E|---------------------------------------|(x3)

GUITAR 1           |****BEND*****|  
e|----------------|----------------|
B|----------------|----------------|
G|-9999999999999--|-99999999999----|
D|----------------|----------------|
A|----------------|----------------|
E|----------------|----------------|

SOLO
e|--------------------------------|
B|--------------------------------|
G|----------8----8-9----9----9----|
D|-6-6-8/10---10-----10---10------|
A|--------------------------------|
E|--------------------------------|(x2)

e|--------------------------------------------------------------------|
B|-9----9----9----8---8---8---13---13---13---17---17---17-------------|
G|-11b--11b--11b--10b-10b-10b-15b--15b--15b--19b--19b--19b------------|
D|--------------------------------------------------------------------|
A|--------------------------------------------------------------------|
E|--------------------------------------------------------------------|(x2) 

GUITAR 1
e|--------------------------------------------------------------|
B|--------------------------------------------------------------|
G|----6----6--------10-----10--------6--6--------10-----10------|
D|-6--6--6------10--10--10--------6--6----6---10-10--10---------|
A|-6--4---------10---8--------0---6--4--------10--8--------0----|
E|-4---------4-/8-----------------4---------4-/8----------------|(x4)

GUITAR 1
e|--------------------------------------------------------------------|
B|--------------------------------------------------------------------|
G|-----------------5-5-5-5-5-5-5-5-6-6-6-6-6-6-6-6-3-3-3-3-3-3-3-3----|
D|-6-6-6-6-6-6-6-6-5-5-5-5-5-5-5-5-6-6-6-6-6-6-6-6-3-3-3-3-3-3-3-3----|
A|-6-6-6-6-6-6-6-6-3-3-3-3-3-3-3-3-4-4-4-4-4-4-4-4-1-1-1-1-1-1-1-1----|
E|-4-4-4-4-4-4-4-4----------------------------------------------------|(x2)

GUITAR 2
e|------------------------------------9-9---9---9------------------------------|
B|-9-9-9-9-9-9-9-9-8-8-8-8-8-8-8-8--9-----9---9---9----11-11----11----11-------|
G|--------------------------------------------------10-------10----10----10----|
D|-----------------------------------------------------------------------------|
A|-----------------------------------------------------------------------------|
E|-----------------------------------------------------------------------------|(x2)

GUITAR 1
e|------------------------------------|
B|------------------------------------|
G|-----------------5-5-5-5-5-5-5-5----|
D|-6-6-6-6-6-6-6-6-5-5-5-5-5-5-5-5----|
A|-6-6-6-6-6-6-6-6-3-3-3-3-3-3-3-3----|
E|-4-4-4-4-4-4-4-4--------------------|(x2)

GUITAR 1
e|--------------------------------------------------------------------|
B|--------------------------------------------------------------------|
G|-----------------5-5-5-5-5-5-5-5-6-6-6-6-6-6-6-6-3-3-3-3-3-3-3-3----|
D|-6-6-6-6-6-6-6-6-5-5-5-5-5-5-5-5-6-6-6-6-6-6-6-6-3-3-3-3-3-3-3-3----|
A|-6-6-6-6-6-6-6-6-3-3-3-3-3-3-3-3-4-4-4-4-4-4-4-4-1-1-1-1-1-1-1-1----|
E|-4-4-4-4-4-4-4-4----------------------------------------------------| 

GUITAR 2
e|----------------------------------|
B|-9-9-9-9-9-9-9-8-8-6-6-5-5-5-5----|
G|----------------------------------|
D|----------------------------------|
A|----------------------------------|
E|----------------------------------|(X2)

GUITAR 2
e|--------------------------------|
B|--------------------------------|
G|----------8----8-9----9----9----|
D|-6-6-8/10---10-----10---10------|
A|--------------------------------|
E|--------------------------------|(X2)

GUITAR 2
e|---------------------------------------|
B|-9-9-9-9-8-8-8-8-6--6--5--5------------|
G|----------------------------5-5-5-5----|
D|---------------------------------------|
A|---------------------------------------|
E|---------------------------------------|(X2)

GUITAR 2
e|------------------------------------------------------------------|
B|-9-9-9-9-8-8-8-8--11-11-11-15b--9-9-9-9-8-8-8-8--11-11-11-15/17~~-|
G|------------------------------------------------------------------|
D|------------------------------------------------------------------|
A|------------------------------------------------------------------|
E|------------------------------------------------------------------|

GUITAR 2
e|-----------------------------------|
B|-17/8---19/8---20b-20b-20b--21b----|
G|-----------------------------------|
D|-----------------------------------|
A|-----------------------------------|
E|-----------------------------------|

GUITAR 1
e|-----------------------------------------------------------------------|
B|-----------------------------------------------------------------------|
G|-----------------5-5-5-5-5-5-5-5-\-6-/-3-----3-----3---------5---------|
D|-6-6-6-6-6-6-6-6-5-5-5-5-5-5-5-5-\-6-/-3---3---3-----3-----5---5--5----|
A|-6-6-6-6-6-6-6-6-3-3-3-3-3-3-3-3-\-4-/-1-1-------1-----1/3-------3-----|
E|-4-4-4-4-4-4-4-4-------------------------------------------------------|

GUITAR 1
e|-------------------------------------------|
B|-------------------------------------------|
G|-------------------------------------------|
D|-6-6--6-6-6--6-6-6--6-6-6--6-6-6--6-6-6----|
A|-6-6--6-6-6--6-6-6--6-6-6--6-6-6--6-6-6----|
E|-4-4--4-4-4--4-4-4--4-4-4--4-4-4--4-4-4----|



************************************

| /   slide up
| \   slide down
| ~   vibrato
| b   Bend

************************************
Tap to rate this tab
# A B C D E F G H I J K L M N O P Q R S T U V W X Y Z