Song name
# A B C D E F G H I J K L M N O P Q R S T U V W X Y Z

Bush - Alien tab

#----------------------------------PLEASE NOTE--------------------------------#
#This file is the author's own work and represents their interpretation of the#
#song. You may only use this file for private study, scholarship, or research.#
#-----------------------------------------------------------------------------#
#-- File created with Instab - http://www.pconline.com/~smcarey/instab.html --#
#-----------------------------------------------------------------------------#

Author/Artist: Bush
Title: Alien
P pluck
\ slide down

Tuning: Db Ab Db Gb Bb eb

-----|--------------------------------------------|---------------------------|
-----|--------------------------------------------|---------------------------|
-----|--------------------------------------------|---------------------------|
-----|--------------------------------------------|---------------------------|
-----|--------------------------------------------|---------------------------|
-----|-10-12--10--8--8--10-8--1--1--1--1--1--1-1--|---------------------------|


-----|----------------------------------------|-------------------------------|
-----|----------------------------------------|-------------------------------|
-----|----------------------------------------|-------------------------------|
-----|----------------------------------------|-------------------------------|
-----|----------------------------------------|-------------------------------|
-----|-12--10--8--8--10-\-1--1--1--1--1--1-1--|-------------------------------|


-----|--------------------------------|-----------------------------------|---|
-----|--------------------------------|-----------------------------------|---|
-----|--------------------------------|-----------------------------------|---|
-----|--------------------------------|-----------------------------------|---|
-----|-17-----15-----13---------------|----17-----15-----13---------------|---|
-----|-----13-----12-12--10h12--13----|-15-----13-----12-----10-12--13----|---|
                     P

-----|-x----x----|--|-------------------|------------|--------------|---------|
-----|-8----6----|--|-------------------|------------|--------------|---------|
-----|-10---8----|--|-------------------|------------|--10---8------|---------|
-----|-8----8----|--|-------------------|-8---8------|--8----8------|---------|
-----|-8----6----|--|-------------------|-8---6------|--8----6------|---------|
-----|-x----x----|--|-------------------|-x---x------|--x----x------|---------|
      Verse/Chorus Chords Pick/Strum     Verse Chords  Chorus Chords

-----|-------------|----------------------------------------------------------|
-----|-------------|----------------------------------------------------------|
-----|-------8-----|----------------------------------------------------------|
-----|-5--3--6--5--|----------------------------------------------------------|
-----|-5--3--6--5--|----------------------------------------------------------|
-----|-x--x--x--x--|----------------------------------------------------------|
      PreChorus Chords

-----|-----x---|--|--x--------------------------------------------------------|
-----|-----6---|--|--6--------------------------------------------------------|
-----|-6---5---|--|--5--------------------------------------------------------|
-----|-6---3---|--|--3--------------------------------------------------------|
-----|-4-------|--|-----------------------------------------------------------|
-----|-x-------|--|-----------------------------------------------------------|
      Bridge Chords

-----|-x----------|-----------------------------------------------------------|
-----|-8----------|-----------------------------------------------------------|
-----|-10---------|-----------------------------------------------------------|
-----|-8----------|-----------------------------------------------------------|
-----|-8----------|-----------------------------------------------------------|
-----|-x----------|-----------------------------------------------------------|
      Outro Chord Pick
Tap to rate this tab
 
# A B C D E F G H I J K L M N O P Q R S T U V W X Y Z