Song name
# A B C D E F G H I J K L M N O P Q R S T U V W X Y Z

Bush - Swallowed chords

Highlighted       Show chord diagrams
INTRO/Verse
e|----------------------------------|
B|----------------------------------|
G|-----7----7----6--11------11------|
D|--7--7--7---7--6--11--11------11--|
A|--7--5---------4---9--------------|
E|--5-------------------------------|

CHORUS Guitar 1
e|----------------------------------------|
B|----------------------------------------|
G|-----------77777777-66666666-99999999---|
D|--77777777-77777777-66666666-99999999---|
A|--77777777-55555555-44444444-77777777---|
E|--55555555------------------------------|


Verse: G# C# C Fm

G#   C#  C       Fm
Warm sun feed me up and Iím 
leery loaded up
Loathing for a change and 
I slip some boil away
Just wanted to be myself
Hey you said you would love to try some
Hey you said you would love to die some
In the middle of a world on a fishhook 
Youíre the wave
Piss on self-esteem, forward busted knee
Sick head blackened lungs 
And Iím simple selfish son

Chorus: G# C C# Bbm

G#        C
Swallowed followed
C#                            Bbm
Heavy about everything but my love
Swallowed sorrowed
Iím with everyone and yet not
Swallowed borrowed
Heavy about everything but my love
Swallowed hollowed
Sharp about everyone but yourself
Got to get away from here
I miss the one that I love a lot
Tap to rate this tab
# A B C D E F G H I J K L M N O P Q R S T U V W X Y Z