Song name
# A B C D E F G H I J K L M N O P Q R S T U V W X Y Z

Bush - Speed Kills tab

Here's the song but note if you want it to sound like in the song you'll need to use an 
for your guitar.Enjoy ;)
Intro:
Guitar 1
e|---------------------------:|
B|--10----10-----10----------:|
G|----8-8----8-8----8-8-9----:|
D|---------------------------:|          x2
A|---------------------------:|
E|---------------------------:|
Then Guitar 2:
e|-------------------------------------------------:|
B|-------------------------------------------------:|
G|-------------------------------------------------:|
D|-7-7-7-2-2-2-10-10-10-9-9-9-7-7-9-9--------------:|
A|-7-7-7-2-2-2-10-10-10-9-9-9-7-7-9-9--------------:|
E|-5-5-5-0-0-0--8--8--8-7-7-7-5-5-7-7--------------:| and guitar 2 stops
Guitar 1
e|---------------------------:|
B|--10----10-----10----------:|
G|----8-8----8-8----8-8-9----:|
D|---------------------------:|          x3/4
A|---------------------------:|
E|---------------------------:|
meanwhile Guitar 2 goins with the verse part
 Guitar 2:
e|------------------------------------------------:|
B|------------------------------------------------:|
G|------------------------------------------------:|
D|-7-7-7-2-2-2-10-10-10-9-9-9-7-7-9-9-------------:|
A|-7-7-7-2-2-2-10-10-10-9-9-9-7-7-9-9-------------:|
E|-5-5-5-0-0-0--8--8--8-7-7-7-5-5-7--7------------:|
When he starts singing:
e|------------------------------------------------:|
B|------------------------------------------------:|
G|------------------------------------------------:|
D|------------------------------------------------:|
A|-7-7-7-2-2-2-10-10-10-9-9-9-7-7-9-9-------------:|
E|-5-5-5-0-0-0--8--8--8-7-7-7-5-5-7-7-------------:|
Then at the chourus both Guitar 1 and 2
e|------------------------------------------------:|
B|------------------------------------------------:|
G|------------------------------------------------:|
D|-7-7-7-2-2-2-10-10-10-9-9-9-7-7-9-9-------------:|
A|-7-7-7-2-2-2-10-10-10-9-9-9-7-7-9-9-------------:|
E|-5-5-5-0-0-0--8--8--8-7-7-7-5-5-7-7-------------:|
Guitar 1
e|---------------------------:|
B|--10----10-----10----------:|
G|----8-8----8-8----8-8-9----:|
D|---------------------------:|
A|---------------------------:|
E|---------------------------:|
Then guitar 1 continues(I'm not really sure for this part but it sounds almost as in the song)
e|-----------------------------------------------:|
B|-----------------------------------------------:|
G|-----------------------------------------------:|
D|-----------------------------------------------:|
A|-8-8-8-8-8-8-8-12-12-12-12-12-12-8-8-8-8-8-8-8-:|
E|-----------------------------------------------:|
Then guitar 2:
Interlude
E|-----------------------------------------------------------------------------|
B|-----------------------------------------------------------------------------|
G|----------------------10-----------------------------------------------------|
D|-3--(x16)--7--(x16)---10-(x16)--10-10-1010-10-\9-9-99-9----------------------|
A|-3---------7----------8---------10-10-1010-10-\9-9-99-9----------------------|
E|-1---------5--------------------8--8--8 8--8--\7-7-77-7----------------------|
   Here you can use distortion
|------------------------------------|
|------------------------------------|
|------------------------------------|
|------------------------------------|
|-----------------3-3-3-3------------|
|-5-5-5-5-0-0-0-0---------5\3-5-5----|

Then verse again with both guitars
Guitar 2
e|-----------------------------------------------:|
B|-----------------------------------------------:|
G|-----------------------------------------------:|
D|-7-7-7-2-2-2-10-10-10-9-9-9-7-7-9--------------:|
A|-7-7-7-2-2-2-10-10-10-9-9-9-7-7-9--------------:|
E|-5-5-5-0-0-0--8--8--8-7-7-7-5-5-7--------------:|
Guitar 1
e|---------------------------:|
B|--10----10-----10----------:|
G|----8-8----8-8----8-8-9----:|
D|---------------------------:|
A|---------------------------:|
E|---------------------------:|
Then he starts singing again
Guitar 2
e|------------------------------------------------:|
B|------------------------------------------------:|
G|------------------------------------------------:|
D|------------------------------------------------:|
A|-7-7-7-2-2-2-10-10-10-9-9-9-7-7-9-9-------------:|
E|-5-5-5-0-0-0--8--8--8-7-7-7-5-5-7-7-------------:|

Next is the chourus it is played the same way as the previous one
Guitar 2
e|------------------------------------------------:|
B|------------------------------------------------:|
G|------------------------------------------------:|
D|-7-7-7-2-2-2-10-10-10-9-9-9-7-7-9-9-------------:|
A|-7-7-7-2-2-2-10-10-10-9-9-9-7-7-9-9-------------:|
E|-5-5-5-0-0-0--8--8--8-7-7-7-5-5-7-7-------------:|
Guitar 1
e|---------------------------:|
B|--10----10-----10----------:|
G|----8-8----8-8----8-8-9----:|
D|---------------------------:|
A|---------------------------:|
E|---------------------------:|
And then the bridge is the same a the verse
Guitar 2
e|------------------------------:|
B|------------------------------:|
G|------------------------------:|
D|-7--2-10-9-7--9---------------:|
A|-7--2-10-9-7--9---------------:|
E|-5--0-8--7-5--7---------------:|
And then Guitar 2 plays
e|---------------------------:|
B|--10----10-----10----------:|
G|----8-8----8-8----8-8-9----:|
D|---------------------------:|
A|---------------------------:|
E|---------------------------:|
And Guitar 1 plays the solo

  Solo
E|-----------------------------------------------------------------------------|
B|--15b16----------------------------------------------------------------------|
G|-----------------------------------------------------------------------------|
D|-----------12/14b-------------------------14b-------------------------14b----|
A|--------12b-------12-14-14b15b14-12-14-12-----12-14-14b15b14-12-14-12--------|
E|-----------------------------------------------------------------------------|

And then the chourur part and the song ends
Guitar 2
e|------------------------------------------------:|
B|------------------------------------------------:|
G|------------------------------------------------:|
D|-7-7-7-2-2-2-10-10-10-9-9-9-7-7-9-9-------------:|
A|-7-7-7-2-2-2-10-10-10-9-9-9-7-7-9-9-------------:|
E|-5-5-5-0-0-0--8--8--8-7-7-7-5-5-7-7-------------:|
Guitar 1
e|---------------------------:|
B|--10----10-----10----------:|
G|----8-8----8-8----8-8-9----:|
D|---------------------------:|
A|---------------------------:|
E|---------------------------:|
Tap to rate this tab
 
# A B C D E F G H I J K L M N O P Q R S T U V W X Y Z