Song name
# A B C D E F G H I J K L M N O P Q R S T U V W X Y Z

Bushwalla - Mayhem Is Beautiful tab

Song: Mayhem Is Beautiful
Artist: Bushwalla

Tabbed by: Twan

Tuning: Standard (EADGBe)

Intro:
e|--------------------7---------------------------------------------------|
B|-1------------------8------------------6---------------------------3----|
G|--------------------9-------------------------------------2--------0----|
D|-2------------------9------------------7----------------3---0----0------|
A|-3------------------7---------------------------------0--------------0--|
E|--------------------7------------------5-----------------------3--------|

e|------------------------------------------------------------------------|
B|-1------------------8------------------6---------------------------3----|
G|--------------------9------------------5------------------2--------0----|
D|-2------------------9------------------7----------------3---0----0------|
A|-3------------------7------------------5--------------0--------------0--|
E|---------------------------------------------------------------3--------|


Main riff (throughout song):
e|-------------------------------------------------------------|
B|-1--x-1---x----8--x-8---x----6--x-6---x-----------------3----|
G|---------------9--x-9---x----5--x-5---x--------2--------0----|
D|-2--x-2-2-x----9--x-9-9-x----7--x-7-7-x------3---0----0------|
A|-3--x-3---x-0--7--x--------0-5--x-5---x----0--------------0--|
E|--------------------7---x---------------------------3--------|


Note: the 'x' is an indication for a right hand percussive slap (on the strings)


************************************

| /   slide up
| \   slide down
| h   hammer-on
| p   pull-off
| ~   vibrato
| +   harmonic
| x   Mute note
| b   Bend
| pb  Pre-bend
| br  Bend release
| pbr Pre-bend release
| brb Bend release bend

************************************
Tap to rate this tab
# A B C D E F G H I J K L M N O P Q R S T U V W X Y Z