Guitaretab - guitar tabs
Song name
# A B C D E F G H I J K L M N O P Q R S T U V W X Y Z

Business - Maradona tab

-------------------------------------------------------------------------------
			     Maradona - The Business
-------------------------------------------------------------------------------
Tabbed by: thelip285
Email:  thelip285@aol.com

This is my first tab, so keep that in mind. Don't pay attention to exact number of times 
should play individual chords, do whatever sounds right. The verse may not be right, I 
what I thought sounded like it. Sorry, I don't have the solo.

Opening/Chorus
[ Tab from: http://www.guitaretab.com/b/business/100612.html ]
e|----------------------------l-----------------------------------------------------|
B|----------------------------l-----------------------------------------------------|
G|-4--------------------------l-----------------------------------------------------|
D|-4-x2---4------7----2-------l---X4--then---------3--------------------------------|
A|-2------4-x2---7----2-x4----l--------------------3---x-many-----------------------|
E|--------2------5----0--------l--------------------1-------------------------------|

Verse

e|-------------------------------------l----------|
B|-------------------------------------l----------|
G|-4-----------------------------------l----------|
D|-4-x12---4-------7---------2---------l---X2-----|
A|-2-------4-x12---7-x12----2-x12-----l-----------|
E|----------2------5--------0----------l----------|

Ending after chorus

e|------------------------------------------------------------------------------|
B|------------------------------------------------------------------------------|
G|------------------------------------------------------------------------------|
D|--3------------5-----------7--------------------------------------------------|
A|--3--x-many---5-x-many----7-x-many--------------------------------------------|
E|--1------------3-----------5--------------------------------------------------|
Related for Maradona tab