Song name
# A B C D E F G H I J K L M N O P Q R S T U V W X Y Z

Business - Handball tab

Handball by: The Business

Intro/bridge:
      D                                 B  A
E|--------------------------------------------|
B|--------------------------------------------|
G|--------------------------------------------|
D|--6/7-7-7-7--6/7-7-7-7--6/7-7-7-7--7--4--2--|
A|--4/5-5-5-5--4/5-5-5-5--4/5-5-5-5--5--2--0--|
E|--------------------------------------------| X2

     D                                      B A
E|----------------------------------------------|
B|----------------------------------------------|
G|----------------------------------------------|
D|-6/7-7--6/7-7--6/7-7-7-7--6/7-7--6/7-7--7-4-2-|
A|-4/5-5--4/5-5--4/5-5-5-5--4/5-5--4/5-5--5-2-0-|
E|----------------------------------------------| X2

Verse:
      D                                 B  A
E|--------------------------------------------|
B|--------------------------------------------|
G|--------------------------------------------|
D|--6/7-7-7-7--6/7-7-7-7--6/7-7-7-7--7--4--2--|
A|--4/5-5-5-5--4/5-5-5-5--4/5-5-5-5--5--2--0--|
E|--------------------------------------------| X4

Chorus:
    F   A G A  F   A G A  F   A G A  F   G
E|------------------------------------------|
B|------------------------------------------|
G|------------------------------------------|
D|------------------------------------------|
A|--3---7-5-7--3---7-5-7--3---7-5-7--3---5--|
E|--1---5-3-5--1---5-3-5--1---5-3-5--1---3--|


By:themechanix100
Tap to rate this tab
# A B C D E F G H I J K L M N O P Q R S T U V W X Y Z