Song name
# A B C D E F G H I J K L M N O P Q R S T U V W X Y Z

Business - Disco Girls tab

-----------------------------------------------------------------------------
			     Disco girls - The Business
-----------------------------------------------------------------------------
Tabbed by:Jake_punkrocker
Email:jacob_colmer@hotmail.com

e|--------------------------|
B|--------------------------|
G|--------------------------|
D|-9-9--8-8--7-7------------| play 14x
A|-7-7--6-6--5-5--7-7-------|
E|----------------5-5-------|

e|--------------------------------------------|
B|--------------------------------------------|
G|--------------------------------------------|
D|-7-7-7-7-10-10-10-10-9-9--8-8--7-7----------|play 2x
A|-5-5-5-5-8--8--8--8--7-7--6-6--5-5--7-7-----|
E|------------------------------------5-5-----|

e|----------------------------------------------------------|
B|----------------------------------------------------------|
G|----------------------------------------------------------|
D|-7-7-7-7-10-10-10-10-9-9--8-8-12-12-12-12-12-12-12-12-----|play 1x
A|-5-5-5-5-8--8--8--8--7-7--6-6-10-10-10-10-10-10-10-10-----|
E|----------------------------------------------------------|

e|--------------------------|
B|--------------------------|
G|--------------------------|
D|-9-9--8-8--7-7------------| play 12x
A|-7-7--6-6--5-5--7-7-------|
E|----------------5-5-------|

e|--------------------------------------------|
B|--------------------------------------------|
G|--------------------------------------------|
D|-7-7-7-7-10-10-10-10-9-9--8-8--7-7----------|play 2x
A|-5-5-5-5-8--8--8--8--7-7--6-6--5-5--7-7-----|
E|------------------------------------5-5-----|

e|----------------------------------------------------------|
B|----------------------------------------------------------|
G|----------------------------------------------------------|
D|-7-7-7-7-10-10-10-10-9-9--8-8-12-12-12-12-12-12-12-12-----|play 1x
A|-5-5-5-5-8--8--8--8--7-7--6-6-10-10-10-10-10-10-10-10-----|
E|----------------------------------------------------------|

e|--------------------------|
B|--------------------------|
G|--------------------------|
D|-9-9--8-8--7-7------------| play 4x
A|-7-7--6-6--5-5--7-7-------|
E|----------------5-5-------|

e|--------------------------------------------|
B|--------------------------------------------|
G|--------------------------------------------|
D|-7-7-7-7-10-10-10-10-9-9--8-8--7-7----------|play 2x
A|-5-5-5-5-8--8--8--8--7-7--6-6--5-5--7-7-----|
E|------------------------------------5-5-----|

e|----------------------------------------------------------|
B|----------------------------------------------------------|
G|----------------------------------------------------------|
D|-7-7-7-7-10-10-10-10-9-9--8-8-12-12-12-12-12-12-12-12-----|play 1x
A|-5-5-5-5-8--8--8--8--7-7--6-6-10-10-10-10-10-10-10-10-----|
E|----------------------------------------------------------|

e|--------------------------|
B|--------------------------|
G|--------------------------|
D|-9-9--8-8--7-7------------| play 12x
A|-7-7--6-6--5-5--7-7-------|
E|----------------5-5-------|

e|--------------------------------------------|
B|--------------------------------------------|
G|--------------------------------------------|
D|-7-7-7-7-10-10-10-10-9-9--8-8--7-7----------|play 3x
A|-5-5-5-5-8--8--8--8--7-7--6-6--5-5--7-7-----|
E|--------------------------------------5-5---|

e|--------------------------------------------------------------------|
B|--------------------------------------------------------------------|
G|--------------------------------------------------------------------|
D|-7-7-7-7-10-10-10-10-9-9--8-8-12-12-12-12-12-12-12-12-12-12-12-12-9-|play 1x
A|-5-5-5-5-8--8--8--8--7-7--6-6-10-10-10-10-10-10-10-10-10-10-10-10-7-|
E|--------------------------------------------------------------------|

thats it, sounds good to me
Tap to rate this tab
 
# A B C D E F G H I J K L M N O P Q R S T U V W X Y Z