Song name
# A B C D E F G H I J K L M N O P Q R S T U V W X Y Z

Business - Southgate Euro 96 tab

-------------------------------------------------------------------------------
			Southgate (Euro 96) - The Business
-------------------------------------------------------------------------------

Tuning: Standard

Intro/Verse
e|------------------------------------------------------------------|
B|------------------------------------------------------------------|
G|----------------------------------5-5-5-5-5-5-5-5-5-5-5-5-5-5-5-5-|
D|--5-5-5-5-5-5-5-5-5-5-5-5-5-5-5-5-5-5-5-5-5-5-5-5-5-5-5-5-5-5-5-5-|
A|--5-5-5-5-5-5-5-5-5-5-5-5-5-5-5-5-3-3-3-3-3-3-3-0-2-2-2-2-2-2-2-0-|
E|--3-3-3-3-3-3-3-0-2-2-2-2-2-2-2-0---------------------------------|

Chorus
e|----------------------------------|-----------------|
B|----------------------------------|-----------------|
G|------------------5-5-5-5-5-5-5-5-|-----------------|
D|--5-5-5-5-5-5-5-5-5-5-5-5-5-5-5-5-|-7-7-7-7-7-7-7-7-|
A|--5-5-5-5-5-5-5-5-3-3-3-3-3-3-3-3-|-7-7-7-7-7-7-7-7-|
E|--3-3-3-3-3-3-3-3-----------------|-5-5-5-5-5-5-5-5-|
Tap to rate this tab
 
# A B C D E F G H I J K L M N O P Q R S T U V W X Y Z