Song name
# A B C D E F G H I J K L M N O P Q R S T U V W X Y Z

Bust - Shut Up tab

Drums and bass are the verse then the drums so a double 16th and the guitar goes 
like this.

--------------------------------------------------
--------------------------------------------------
-5-5-5-5------7-7-7-7-------5-5-5-5-------3-3-3-3-
-5-5-5-5------7-7-7-7-------5-5-5-5-------3-3-3-3-
-3-3-3-3------5-5-5-5-------3-3-3-3-------1-1-1-1-
--------------------------------------------------

that gets repeated on three chorus parts then on the last time right before the drum 
solo theres a interlude part

---------------------------------------------------
---------------------------------------------------
---------------------------------------------------
--9-9-9-9----7-7-7-7----5-5-5-5----2-2-2-2---------
--9-9-9-9----7-7-7-7----5-5-5-5----2-2-2-2---------
--7-7-7-7----5-5-5-5----3-3-3-3----0-0-0-0---------

its pretty easy jus straight power chords play with or without disortion sounds better on 
the interlude with it.
Tap to rate this tab
# A B C D E F G H I J K L M N O P Q R S T U V W X Y Z