Song name
# A B C D E F G H I J K L M N O P Q R S T U V W X Y Z

Busted - Nerdy tab

Intro

Gtr 1: Clean electric
Gtr 2: Clean electric
Gtr 3: W/wah
Gtr 4: Acoustic

Gtr 1
e-12p10-10-10-10/7-7-7-7/5-5-5/3-3-3-3-3/-|
B-----------------------------------------|
G-----------------------------------------| X2
D-----------------------------------------|
A-----------------------------------------|
E-----------------------------------------|

Gtr 2
e---------------------------------------------|
B-12p10-10--10-10/8-8-8-8-8/5-5-5/3-3-3--3-3/-|
G---------------------------------------------| X2
D---------------------------------------------|
A---------------------------------------------|
E---------------------------------------------|

Gtr 3
e---------------------------------------------|
B---------------------------------------------|
G---------------------------------------------|
D-5------5/7--9---------10/9----9-9-9-7/5---5-|
A---------------------------------------------|
E---------------------------------------------|

Gtr 4
e------3---3------3---3------3---3-------3---2----|
B---------3-3--------3-3--------3-3---------3---3-|
G--------------0----------------------2-----------|
D-2------------2----------0-----------0-----------|
A-2------------3----------2-----------------------|
E-0-----------------------3-----------------------|

Tab Guide:

/: Slide
p: Pull - off
Tap to rate this tab
# A B C D E F G H I J K L M N O P Q R S T U V W X Y Z