Song name
# A B C D E F G H I J K L M N O P Q R S T U V W X Y Z

Busted - Where Is The Love tab

Song- Where Is the Love
Band- Busted
Album- Who's David Single
Year- 2004


Intro:

Little Drum Roll to start:
guitar1
--------------------------------------------------|
--------------------------------------------------|
--10(6x)---13-10-9(6x)--9-10-7(6x)-9-10-----------|
--10----10-13-10-9----9-9-10-7-----9-10-8(6x)-----|
---8----10-11--8-7----9-7--8-5-----7--8-8---------|
---------8------------7-----------------6---------|
guitar2
E|------------------------------------|
B|------------------------------------|
G|-10---------------------------------|
D|-10x16--10------12-------8----------|
A|--8-----10x16---12 x16---8x16-------|
E|---------8------10-------6----------|

Verse:


--------------------------------------------------------------|
--------------------------------------------------------------|
----10X10(as much as needed)----------------------------------|
----10X10-------------------10X10(same)12x12(same)8x8(same)---|
-----8X-8-------------------10x10------12x12------8x8---------|
-----------------------------8x-8------10x10------6x6---------|


Chorus:

guitar1
--------------------------------------------------|
--------------------------------------------------|
--10(6x)---13-10-9(6x)--9-10-7(6x)-9-10-----------|
--10----10-13-10-9----9-9-10-7-----9-10-8(6x)-----|
---8----10-11--8-7----9-7--8-5-----7--8-8---------|
---------8------------7-----------------6---------|

guitar2
E|------------------------------------|
B|------------------------------------|
G|-10---------------------------------|
D|-10x16--10------12-------8----------|
A|--8-----10x16---12 x16---8x16-------|
E|---------8------10-------6----------|

People Killin', People Dyin', Children Hurt.....


Verse:


Interlude

guitar1
--------------------------------------------------|
--------------------------------------------------|
--10(6x)---13-10-9(6x)--9-10-7(6x)-9-10-----------|
--10----10-13-10-9----9-9-10-7-----9-10-8(6x)-----|
---8----10-11--8-7----9-7--8-5-----7--8-8---------|
---------8------------7-----------------6---------|
guitar2
E|------------------------------------|
B|------------------------------------|
G|-10---------------------------------|
D|-10x16--10------12-------8----------|
A|--8-----10x16---12 x16---8x16-------|
E|---------8------10-------6----------|


That's it I hope you enjoy my tab.rate fairly and leave comments if you want. Have a 
day fellows!
Tap to rate this tab
 
# A B C D E F G H I J K L M N O P Q R S T U V W X Y Z