Song name
# A B C D E F G H I J K L M N O P Q R S T U V W X Y Z

Busted - Air Hostess tab

Well basically I don't think this is the exact way busted play it, but it's alot better
the other tabs, one being incomplete and the other too confusing to read, basically this
will round the song up on one guitar (rhythm guitar) and you can play around with it 
but played along to the song it sounds alright.

Intro(Bass transcribed to guitar)
e|----------------------------------|
B|----------------------------------|
G|----------------------------------|
D|--0-0-2-0-0-0-2-0-0-0-2-0-2-4-2-0-|
A|----------------------------------|
E|----------------------------------|x2

Guitar Intro
e|-------------------------|
B|-------------------------|
G|--7-----------9----------|
D|--7x16--7-----9x16--5----|
A|--5-----7x16--7-----5x16-|
E|--------5-----------3----|

Verse Part 1
(Walking through the terminal...)
e|-----------------|
B|-----------------|
G|--7~------9~-----|
D|--7~--7~--9~--5~-|
A|--5~--7~--7~--5~-|
E|------5~------3~-|x2

Verse Part 2 Or Pre Chorus Whatever You Want To Call It
(That Uniform You're Wearing...)
e|--------------------------|
B|--------------------------|
G|--------------7-----------|
D|--2-----5-----7x16--7-----|
A|--2x16--5x16--5-----7x16--|
E|--0-----3-----------5-----|
PM...........................

e|------------------|
B|------------------|
G|------------------|
D|--2-----5-----7---|
A|--2x16--5x16--7x8-|
E|--0-----3-----5---|
PM.........

1st Chorus
(Air Hostess, I Like The Way You Dress...)
e|-------------------------|
B|-------------------------|
G|--7-----------9----------|
D|--7x16--7-----9x16--5----|
A|--5-----7x16--7-----5x16-|
E|--------5-----------3----|

e|---------------------------------------------|
B|---------------------------------------------|
G|--7-----------9------------------------------|
D|--7x16--7-----9x16--5-5-5-5-5-5-5-5--7--5----|
A|--5-----7x16--7-----5-5-5-5-5-5-5-5--7--5x16-|
E|--------5-----------3-3-3-3-3-3-3-3--5--3----|

Verse Part 1
(Throwing Peanuts Down The Aisle...)
e|-----------------|
B|-----------------|
G|--7~------9~-----|
D|--7~--7~--9~--5~-|
A|--5~--7~--7~--5~-|
E|------5~------3~-|x2

Verse Part 2 Or Pre Chorus Whatever You Want To Call It
(In England People Know Me...)
e|--------------------------|
B|--------------------------|
G|--------------7-----------|
D|--2-----5-----7x16--7-----|
A|--2x16--5x16--5-----7x16--|
E|--0-----3-----------5-----|
PM...........................

e|------------------|
B|------------------|
G|------------------|
D|--2-----5-----7---|
A|--2x16--5x16--7x8-|
E|--0-----3-----5---|
PM.........

2nd Chorus
(Air Hostess, I Like The Way You Dress...)
e|-------------------------|
B|-------------------------|
G|--7-----------9----------|
D|--7x16--7-----9x16--5----|
A|--5-----7x16--7-----5x16-|
E|--------5-----------3----|

e|------------------------------------------------------------|
B|------------------------------------------------------------|
G|--7-----------9---------------------------------------------|
D|--7x16--7-----9x16--5-5-5-5-5-5-5-5--7-7-7-7-7-7-7-7---5----|
A|--5-----7x16--7-----5-5-5-5-5-5-5-5--7-7-7-7-7-7-7-7---5x16-|
E|--------5-----------3-3-3-3-3-3-3-3--5-5-5-5-5-5-5-5---3----|
                                     PM. . . . . . . .
Bridge
(Na na na na...)
e|---------------------------|
B|---------------------------|
G|--7---------9--------------|
D|--7x8--7----9x16--5----7---|
A|--5----7x8--7-----5x8--7x8-|
E|-------5----------3----5---|x2

Last Chorus
(Air Hostess, I Like The Way You Dress...)
e|-------------------------|
B|-------------------------|
G|--7-----------9----------|
D|--7x16--7-----9x16--5----|
A|--5-----7x16--7-----5x16-|
E|--------5-----------3----|

e|---------------------------------------------|
B|---------------------------------------------|
G|--7-----------9------------------------------|
D|--7x16--7-----9x16--5-5-5-5-5-5-5-5--7--5----|
A|--5-----7x16--7-----5-5-5-5-5-5-5-5--7--5x16-|
E|--------5-----------3-3-3-3-3-3-3-3--5--3----|

Outro
(Na na na na...)
e|---------------------------|
B|---------------------------|
G|--7---------9--------------|
D|--7x8--7----9x16--5----7---|
A|--5----7x8--7-----5x8--7x8-|
E|-------5----------3----5---|x2

Once again not the exact way to play it, but since the other tabs aren't that great this
give you a good guideline to the song it does sound great played along to it though and
how I play it.
Tap to rate this tab
 
# A B C D E F G H I J K L M N O P Q R S T U V W X Y Z