Song name
# A B C D E F G H I J K L M N O P Q R S T U V W X Y Z

Busted - Where Is The Love Live tab

Well this song is very easy to play, 
it's actually just E5 B5 C#5 and A5 playing again and again ;)


riff

|-------------------------------------|
|-------------------------------------|
|--------------------------------2---2|
|2----4-2-1----1-2------1-2-----------|
|---2--------2-----4--4-----0--0---0--|
|-------------------------------------|

chorus 1st gtr
 
 E5              B5              C#5             A5              

|---------------------------------------------------------------|
|5-5-5-5-5-5-5-5------------------------------------------------|
|4-4-4-4-4-4-4-4-4-4-4-4-4-4-4-4-6-6-6-6-6-6-6-6-2-2-2-2-2-2-2-2|
|2-2-2-2-2-2-2-2-4-4-4-4-4-4-4-4-6-6-6-6-6-6-6-6-2-2-2-2-2-2-2-2|
|----------------2-2-2-2-2-2-2-2-4-4-4-4-4-4-4-4-0-0-0-0-0-0-0-0|
|---------------------------------------------------------------|

chorus 2nd gtr

|---------------------------------------------------------------------------------------|
|---------------------------------------------------------------------------------------|
|9-9-9-9-9-9-9-9-11-11-11-11-11-11-11-11-13-13-13-13-13-13-13-13-14-14-14-14-14-14-14-14|
|x-x-x-x-x-x-x-x-x--x--x--x--x--x--x--x--x--x--x--x--x--x--x--x--x--x--x--x--x--x--x--x-|
|7-7-7-7-7-7-7-7-9--9--9--9--9--9--9--9--11-11-11-11-11-11-11-11-12-12-12-12-12-12-12-12|
|---------------------------------------------------------------------------------------|

verse

|----------------------------------------------------|
|----------------------------------------------------|
|9-9--9-9-9-9-4-4--4-4-4-4-6-6--6-6-6-6-2-2--2-2--2-2|
|9-9--x-x-x-x-4-4--x-x-x-x-6-6--x-x-x-x-2-2--2-2--2-2|
|7-7--7-7-7-7-2-2--2-2-2-2-4-4--4-4-4-4-0-0--0-0--0-0|
|----------------------------------------------------|


That's it, hope it was useful for you :) Rate n comment pls
Tap to rate this tab
# A B C D E F G H I J K L M N O P Q R S T U V W X Y Z