Busted - Extra Exceedingly Fitness tab

Hi! this is my tab of Extra Exceedingly Fitness of busted
Enjoy!!!!!!
lespejo412@hotmail.com
Leoo Espejo www.facebook.com/Jesus.Leoo
www.twitter.com/LeooSagoh
hehehehe!

e---------------------------------------------------------------------------|
B--------------3-------------------3----3-----3-----3-3--1--0--3--1--0------|
G-----5--4----------5--4---------0-----0-----0-----0------------------------|
D---5-----5-------5------5-----5------5-----5-----5-------------------------|
A--3---------3---------------2----------------------------------------------|
E--------------------------------------------------------LeooEspejo---------|

e--------------------------------------------------|
B-------------3----3-----3-----3-----3--3hs5-------|
G----------0-----0-----0-----0-----0---------------|
D-------5------5-----5-----5-----5-----------------|
A----2---------------------------------------------|
E------------------------------------LeooEspejo----|

Leoo Espejo (;
lespejo412@hotmail.com
www.facebook.com/Jesus.Leoo
www.twitter.com/LeooSagoh


Tap to rate this tab
 
# A B C D E F G H I J K L M N O P Q R S T U V W X Y Z