Song name
# A B C D E F G H I J K L M N O P Q R S T U V W X Y Z

Busted - You Said No - Crash And Burn tab

Help us improve GuitareTab! Take a short survey!
You Said No (Crash and Burn)
Busted

 OFee 2005

CHORD CHART:

   G#m  F#   E   B
e|--4----2---0------|
B|--4----2---0---4--|
G|--4----3---1---4--|
D|--6----4---2---4--|
A|--6----4---2---2--|
E|--4----2---0------|


INTRO:

e|--------------------------------------------------------------------|
B|--------------------------------------------------------------------|
G|--------------------------------------------------------------------|
D|--------------------------------------------------------99999-8--6--|
A|--9-x-x-9-x-x-9-9-9--9-x-x-9-x-x-9-6-6--6-x-x-6-x-x-6---77777-6--4--|
E|--7-x-x-7-x-x-7-6-6--6-x-x-6-x-x-6-4-4--4-x-x-4-x-x-4-0-------------|

VERSE 1: Play INTRO with vocals, until but you can change it over this, play

e|--------------------------|
B|--------------------------|
G|--------------------------|
D|--6---6-/-8---8---8-/-9---|
A|--4---4-/-6---6---6-/-7---|
E|--------------------------|


Youre so fit, and you know it
And I only dream of you
Cos my lifes such a bitch
But you can change it

PRECHORUS:

e|-----------------------------------------------------------|
B|-----------------------------------------------------------|
G|--11--x-11--11-11-x----------------------------------------|
D|---9--x--9---9--9-x-x2--11--x-11--11-11-x---4--x-4--4-4-x--|
A|---7--x--7---7--7-x------9--x--9---9--9-x---4--x-4--4-4-x--|
E|-------------------------7--x--7---7--7-x---2--x-2--2-2-x--|

e|--------------------------------------------------------------------|
B|--------------------------------------------------------------------|
G|--11--x-11--11-11-x------8---x--8---8--8--8-/-11-11-11-11-11-11-11--|
D|---9--x--9---9--9-x-x2---6---x--6---6--6--6-/--9--9--9--9--9--9--9--|
A|---7--x--7---7--7-x------4---x--4---4--4--4-/--7--7--7--7--7--7--7--|
E|--------------------------------------------------------------------|

Maybe you need somebody just like me
Dont turn me down
Cos Ive got no car
And Ive got no money

CHORUS (play first section twice, then the second section once):

e|--------------------------------------------------------------------|
B|--------------------------------------------------------------------|
G|-------------------------------------1---1--1---1-1---1---1-1--1-1-|
D|-9---9--9---9--9---9---9--9---9--9---2---2--2---2--2---2---2-2--2-2-|
A|-9---9--9---9--9---9---9--9---9--9---2---2--2---2--2---2---2-2--2-2-|
E|-7---7--7---7--7---6---6--6---6--6---0---0--0---0--0---0---0-0--0-0-|

e|--------------------------------------------------------|
B|--------------------------------------------------------|
G|-6---6--6--6--6--6-/-11--11--11--11--11--11--11--11--11-|
D|-6---6--6--6--6--6-/--9---9---9---9---9---9---9---9---9-|
A|-4---4--4--4--4--4-/--7---7---7---7---7---7---7---7---7-|
E|--------------------------------------------------------|

I asked you to dance at the disco
But you said no
The whole world was watching
And laughing
On the day that
I crashed and burned at your feet

INTRO x1

VERSE 2 (Play same as VERSE 1):

Since the day you dissed me
Im feeling so pathetic
Cos the guys, well theyve ditched me
And its all because of

PRECHORUS (Play same PRECHORUS chords):

You and your friends
Are laughing at me now
You think that Im nothing
Ask your sister what youre missing

CHORUS x1

BRIDGE: Strum according to how it is in the song, with some regular chords and some 
by lifting up your frethand a bit to give it a scratching sound.  Listen to the song to 
out exactly how this should sound.

G#m         F#                    E           F#
Maybe you think that youre too good for me
G#M           F#                   E
Tonight when you get home youre gonna see
G#M         E
    I know       Ive got
          E  B    F#  G#M  F# E
Something better than you baby

PLAY INTRO OVER NEXT BIT, BUT END IN A [x79xxx] STRUM

Na-na na na, na-na na na, na-na na na, na-na na na
Na-na na na, na-na na na, na-na na na, na-na na na

CHORUS x2

On the second chorus, when you hit I crashed and burned, at your feet, hit the 
chords:

    I crashed and burned at your feet
e|----------------7-------------------|
B|----------------7----------------4--|
G|--4-------------9----------------4--|
D|--6-------------9----------------4--|
A|--4-------------7----------------2--|
E|------------------------------------|
Related for You Said No - Crash And Burn tab