Song name
# A B C D E F G H I J K L M N O P Q R S T U V W X Y Z

Busted - Falling For You tab

Guitar One (Distorted Lead) Standard Tuning 

Intro 

Main Riff 
e------------7-------|-----------7--------|------------7-------|---9------7-------|  
B-------10-----10----|-------10-----10----|-------10-----10----|-----10-----10----|
G----9------9--------|----9------9--------|----9-----9---------|------------------|  x 3 
D--7-----------------|--------------------|--------------------|------------------|
A--------------------|--------------------|--------------------|------------------| 
E--------------------|--------------------|--------------------|------------------|  

Verse 1 

Semesters coming soon...
e--------------------|--------------------|--------------------|
B--------------------|--------------------|--------------------|
G--------------------|--7----7----777-----|--9----9----999-----|
D--x-7-xx-7-x-7-xx-7-|--7----7----777-----|--9----9----999-----| x2
A--x-7-xx-7-x-7-xx-7-|--5----5----555-----|--7----7----777-----|
E--x-5-xx-5-x-5-xx-5-|--------------------|--------------------| 

Next week...
e--------------------|--------------------|--------------------|--------------------|
B--------------------|--------------------|--------------------|--------------------|
G--------------------|--9----9----999-----|--7----7----777-----|--9----9----999-----| 
D--4----4----444-----|--9----9----999-----|--7----7----777-----|--9----9----999-----|
A--4----4----444-----|--7----7----777-----|--5----5----555-----|--7----7----777-----|
E--2----2----222-----|--------------------|--------------------|--------------------|

I'd ask to...
e--------------------|--------------------|--------------------|--------------------|
B--------------------|--------------------|--------------------|--------------------|
G--------------------|--9----9----999-----|--7----7----777-----|--9-----------------| 
D--4----4----444-----|--9----9----999-----|--7----7----777-----|--9-----------------|
A--4----4----444-----|--7----7----777-----|--5----5----555-----|--7-----------------|
E--2----2----222-----|--------------------|--------------------|--------------------|

Chorus 

I... I'm really falling for you.... 
e--------------------|--------------------|--------------------|--------------------|
B--------------------|--------------------|--------------------|--------------------|
G--------------------|--------------------|--------------------|--------------------| x2
D--7----7----7----7--|--9----9----9----9--|--12---12---12--12--|--12---12---12--12--|
A--7----7----7----7--|--9----9----9----9--|--12---12---12--12--|--12---12---12--12--|
E--5----5----5----5--|--7----7----7----7--|--10---10---10--10--|--10---10---10--10--|

What have you done to me now...
e--------------------|--------------------|--------------------|--------------------|
B--------------------|--------------------|--------------------|--------------------|
G--------------------|--999---------------|--7----7----777-----|--9----9----999-----| x2
D--444---------------|--999---------------|--7----7----777-----|--9----9----999-----|
A--444---------------|--777---------------|--5----5----555-----|--7----7----777-----|
E--222---------------|--------------------|--------------------|--------------------| 

Pre Verse 

Main Riff
e------------7-------|-----------7--------|------------7-------|---9------7-------|  
B-------10-----10----|-------10-----10----|-------10-----10----|-----10-----10----|
G----9------9--------|----9------9--------|----9-----9---------|------------------|  x 2 
D--7-----------------|--------------------|--------------------|------------------|
A--------------------|--------------------|--------------------|------------------| 
E--------------------|--------------------|--------------------|------------------|  

Verse 2

You showed up at my door...
e--------------------|--------------------|--------------------|
B--------------------|--------------------|--------------------|
G--------------------|--7----7----777-----|--9----9----999-----|
D--x-7-xx-7-x-7-xx-7-|--7----7----777-----|--9----9----999-----| x2
A--x-7-xx-7-x-7-xx-7-|--5----5----555-----|--7----7----777-----|
E--x-5-xx-5-x-5-xx-5-|--------------------|--------------------| 

I guess she found it funny... 
e--------------------|--------------------|--------------------|--------------------|
B--------------------|--------------------|--------------------|--------------------|
G--------------------|--9----9----999-----|--7----7----777-----|--9----9----999-----| 
D--4----4----444-----|--9----9----999-----|--7----7----777-----|--9----9----999-----|
A--4----4----444-----|--7----7----777-----|--5----5----555-----|--7----7----777-----|
E--2----2----222-----|--------------------|--------------------|--------------------|

The Piercing...
e--------------------|--------------------|--------------------|--------------------|
B--------------------|--------------------|--------------------|--------------------|
G--------------------|--9----9----999-----|--7----7----777-----|--9-----------------| 
D--4----4----444-----|--9----9----999-----|--7----7----777-----|--9-----------------|
A--4----4----444-----|--7----7----777-----|--5----5----555-----|--7-----------------|
E--2----2----222-----|--------------------|--------------------|--------------------|


Chorus 

I... I'm really falling for you.... 
e--------------------|--------------------|--------------------|--------------------|
B--------------------|--------------------|--------------------|--------------------|
G--------------------|--------------------|--------------------|--------------------| x2
D--7----7----7----7--|--9----9----9----9--|--12---12---12--12--|--12---12---12--12--|
A--7----7----7----7--|--9----9----9----9--|--12---12---12--12--|--12---12---12--12--|
E--5----5----5----5--|--7----7----7----7--|--10---10---10--10--|--10---10---10--10--|

What have you done to me now...
e--------------------|--------------------|--------------------|--------------------|
B--------------------|--------------------|--------------------|--------------------|
G--------------------|--999---------------|--7----7----777-----|--9----9----999-----| x2
D--444---------------|--999---------------|--7----7----777-----|--9----9----999-----|
A--444---------------|--777---------------|--5----5----555-----|--7----7----777-----|
E--222---------------|--------------------|--------------------|--------------------| 


Pre Bridge  

Main Riff
e------------7-------|-----------7--------|------------7-------|---9------7-------|  
B-------10-----10----|-------10-----10----|-------10-----10----|-----10-----10----|
G----9------9--------|----9------9--------|----9-----9---------|------------------|  x 2 
D--7-----------------|--------------------|--------------------|------------------|
A--------------------|--------------------|--------------------|------------------| 
E--------------------|--------------------|--------------------|------------------|  


Bridge 

Taking over my life...
e--------------------|--------------------|--------------------|--------------------|
B--------------------|--------------------|--------------------|--------------------|
G--------------------|--------------------|--------------------|--------------------|
D--4*4*4*4*4*4*4*4*--|--6*6*6*6*6*6*6*6*--|--7*-7*-7--7*-7*-7-7|--7*-7*-7--7*-7*-7-7|  x2
A--2*2*2*2*2*2*2*2*--|--4*4*4*4*4*4*4*4*--|--5*-5*-5--5*-5*-5-5|--5*-5*-5--5*-5*-5-5|
E--------------------|--------------------|--------------------|--------------------| 

e--------------------|--------------------|--------------------|--------------------|
B--------------------|--------------------|--------------------|--------------------|
G--------------------|--------------------|--------------------|--7--7--7--7--7~~~~~|
D--4*4*4*4*4*4*4*4*--|--6*6*6*6*6*6*6*6*--|--7*-7*-7--7*-7*-7-7|--7--7--7--7--7~~~~~|  
A--2*2*2*2*2*2*2*2*--|--4*4*4*4*4*4*4*4*--|--5*-5*-5--5*-5*-5-5|--5--5--5--5--5~~~~~|
E--------------------|--------------------|--------------------|--------------------| 

Break (Turn off Distortion) 

I... I'm really falling for you 

e--5------5------55--|--7---7---7---77----|--5------5------55--|--5---5---5---55----|
B--5------5------55--|--7---7---7---77----|--7------7------77--|--7---7---7---77----|
G--6------6------66--|--7---7---7---77----|--7------7------77--|--7---7---7---77----| x2
D--7------7------77--|--9---9---9---99----|--7------7------77--|--7---7---7---77----|
A--7------7------77--|--9---9---9---99----|--5------5------55--|--5---5---5---55----|
E--5------5------55--|--7---7---7---77----|--------------------|--------------------|

Chorus (Switch On Distortion) 

What have you done to me now....
e--------------------|--------------------|--------------------|--------------------|
B--------------------|--------------------|--------------------|--------------------|
G--------------------|--999---------------|--7----7----777-----|--9----9----999-----| x2
D--444---------------|--999---------------|--7----7----777-----|--9----9----999-----|
A--444---------------|--777---------------|--5----5----555-----|--7----7----777-----|
E--222---------------|--------------------|--------------------|--------------------|  

Main Riff

e------------7-------|-----------7--------|------------7-------|---9------7-------|  
B-------10-----10----|-------10-----10----|-------10-----10----|-----10-----10----|
G----9------9--------|----9------9--------|----9-----9---------|------------------|  x 4 
D--7-----------------|--------------------|--------------------|------------------|
A--------------------|--------------------|--------------------|------------------| 
E--------------------|--------------------|--------------------|------------------|  

What have you done to me now....
e--------------------|--------------------|--------------------|--------------------|
B--------------------|--------------------|--------------------|--------------------|
G--------------------|--999---------------|--7----7----777-----|--9----9----999-----| x2
D--444---------------|--999---------------|--7----7----777-----|--9----9----999-----|
A--444---------------|--777---------------|--5----5----555-----|--7----7----777-----|
E--222---------------|--------------------|--------------------|--------------------|  

Ending 

D--7~~~~~~~~~~~~~
A--7~~~~~~~~~~~~~
E--5~~~~~~~~~~~~~

Tap to rate this tab
# A B C D E F G H I J K L M N O P Q R S T U V W X Y Z