Song name
# A B C D E F G H I J K L M N O P Q R S T U V W X Y Z

Busted - Whos David tab

Help us improve GuitareTab! Take a short survey!
This is the 1st tab that I've done... hope it comes out okay lol. 

I got the guitar book for the album A Present For Everyone when I got my guitar
last x-mas, and I've decided to share my favourite book with you guys (I just
hope people are still listening to Busted lol)

----------------------------------------------------------------------------

E|------------------|-5---5---4---4----|-5---5---4---2----|
B|----------------5-|---5---5---5---5--|---5---5---5---0--|
G|------------------|------------------|------------------|
D|------------------|------------------|------------------|
A|------------------|------------------|------------------|
E|------------------|------------------|------------------|

E|-0---0-2---2-4----|-4---4-5---5-4----|
B|---0-----0-----0--|---0-----0-----5--|
G|------------------|------------------|
D|------------------|------------------|
A|------------------|------------------|
E|------------------|------------------|

Hope that's okay ^_^

It should be correct as I copied it out of the book lol, but knowing me I probably copied it wrong

Tabbed by Emz xx
Related for Whos David tab