Song name
# A B C D E F G H I J K L M N O P Q R S T U V W X Y Z

Busted - Crashed The Wedding Acoustic tab

Busted Crashed the Wedding Acoustic intro
This is my 2nd tab

Capo 1st fret

e[-----5---3----2----2h3----------------------------------------------------]
b[--3---------3----3-------5---3--------------------------------------------]
g[--------------------------------------------------------------------------]
d[--------------------------------------------------------------------------]
a[--------------------------------------------------------------------------]
E[--------------------------------------------------------------------------]


e[-----5---3----2----2h3----------------------------------------------------]
b[------------3----3-------5---3--------------------------------------------]
g[--------------------------------------------------------------------------]
d[--------------------------------------------------------------------------]
a[--------------------------------------------------------------------------]
E[--------------------------------------------------------------------------]


e[-----5---3----2----2h3----------------------------------------------------]
b[------------3----3-------5---3-----5555--7777--8888--7777-----------------]
g[--------------------------------------------------------------------------]
d[--------------------------------------------------------------------------]
a[--------------------------------------------------------------------------]
E[--------------------------------------------------------------------------]

Please feel free to leave comments at Son_of_dork_dork@hotmail.co.uk
Tap to rate this tab
# A B C D E F G H I J K L M N O P Q R S T U V W X Y Z