Guitaretab - guitar tabs
Song name
# A B C D E F G H I J K L M N O P Q R S T U V W X Y Z

Butch Walker - Sober Acoustic tab

Highlighted       Show chord diagrams
Acoustic Version of Sober; By: Butch Walker
Submitted By: Joey Verzilli
------------Listen to song for strumming
!!!---I dont know the names of some chords, so i'll make them up...
Into/Verses:
                      Chord Z
E---x------x------x-----------------------------------------------
B---x------x------x------1------0---------------------------------
G---5------5------5------0------0---------------------------------
D---5------4------3------0------0---------------------------------
A---3------3------3------2------2---------------------------------
E---x------x------x------3------3---------------------------------
  x8     x8     x8

Chorus: 
[ Tab from: http://www.guitaretab.com/b/butch-walker/140523.html ]
 Fsomething       C
E----0------------0-----------
B----1------------1-----------
G----2------------0-----------
D----3------------2-----------
A----3------------3-----------
E----X------------x-----------


      Fsomething    C
Is it me or is this over?
         Fsomething               C
As I got sober I watched you fade away.
      Fsomething    C
Is it me or is this ending? 
         Fsomething
As I was pretending 
                   C
I watched you fade away


Bridge:

Fsomething
Sooner or later we gotta stop this elevator.
G                   Chord Z
You go your way and I'll go mine.
G
I'm sure that I'll be fine.

...Chorus...
Related for Sober Acoustic tab
×
Sober Acoustic