Song name
# A B C D E F G H I J K L M N O P Q R S T U V W X Y Z

Butch Walker - Summer Scarves tab

Song: Summer Scarves
Artist: Butch Walker
Album: Sycamore Meadows
Tabbed By: BeeMar

Capo 3rd Fret

Intro:

Gtr. 2
E------8-12-----------------------8-12--8-------------|
B-8h10-----------8-10---10---8h10---------8-----------|
G------------9-10------9--------------------10-9-10---|
D-----------------------------------------------------|
A-----------------------------------------------------|
E-----------------------------------------------------|

Pre verse: Am*,  Fmaj7* x2

*Fig. 1
    Am               Fmaj7
E|--0------0---0-0--0------0---0--------------|
B|--0h1----1---1-1--1------1---1--------------|
G|--2------0h2p0-2--0h2----0h2p0--------------|   x2
D|--2------2---2-3--3------3---3--------------|
A|--0------0---0-0--0------0---0------ -------|
E|--0------0---0-1--1------1---1--------------|

             Am                              Fmaj7
Lyin' in the overgrown-up grass in the front yard
              Am                            Fmaj7
Water falling from the sky so warm it feels hard
                 G                       Fmaj7   G**
Trying to figure out just who you really are to me

**Fig. 2
   G
E|--3-3-3-3-3-3-3-3-3-3-3-3-3-3-3----|
B|--0-0-0-0h1-1-1-0-0-0-0-0-0-0-0----|
G|--0-0-0-0-0-0-0-0-0-0-0-0-0-0-0----|
D|--0-0-0-0-0-0-0-0-0-0-0-0-0-0-0----|
A|--2-2-2-2-2-2-0-2-2-2-2-2-2-2-2----|
E|--3-3-3-3-3-3-3-3-3-3-3-3-3-3-3----|


Chorus
        F/C Am G                      Am
And the summer scarves are all around me
        F/C  Am G
And the sunburn grows around my neck
        F/C    Am  G                 Am
And the sum of her still remains a memory
         F/C Am G
Till the summer turns the day to black


Intro

               Am                              Fmaj7
Needle droppin on a record that you bought for me
                  Am                          Fmaj7
And you traced my name inside the logo on the sleeve
                    G                             Fmaj7    G**
You circled all the lines and the lyrics that you mean for me

Gtr. 2
E--8--7--8--------------|
B-----------8-----------|
G--------------7--------|  play during break after "lyrics that you mean..."
D------------------ ----|
A-----------------------|
E-----------------------|
Chorus

Bridge
     Am               Em
Some wait their whole life
        Am             Em
Just to feel something right
       Fmaj7                             Am
And it grips you like a wave you wish it never goes away
        Em
Then it does


Chorus

Outro: F/C, Am, G x4

Gtr. 2
E-------8-8------------------------------------------|
B-10-12-----8-8888-8888-8----------------------------|
G------------9----9----9-----------------------------|          x3
D----------------------------------------------------|
A----------------------------------------------------|
E----------------------------------------------------|


E-------8-8--------------|
B-10-12-----8-8----------|
G------------9-9b--------|
D------------------------|
A------------------------|
E------------------------|
Tap to rate this tab
 
# A B C D E F G H I J K L M N O P Q R S T U V W X Y Z