Song name
# A B C D E F G H I J K L M N O P Q R S T U V W X Y Z

Butch Walker - Diary Of A San Fernando Sexx Star tab

Drop d tuning
   \=slide
   p.m.=Palm Mute

the bridge in this is probably wrong but o well.

   Verse(the first time it's palm muted and clean on the second time)
e|-----------------|
b|-----------------|
g|-5---5---5-----5-|
d|-5-5-5-3-5-5-3-5-|
a|-3-5-3-3-3-5-3-3-|
D|---5---3---5-3---|
                     (2x)

   Chorus
e|---------15-15-15-------------------------------------------|
b|------------------------------------------------------------|
g|---------------------------5\7\9\10------------7\10---------|
d|-3-3-3-3----------3-3-3-3--x-x-x-x---7-7-5-5---x-x--7-7-5-5-|
a|-3-3-3-3----------3-3-3-3--3\5\7\8---7-7-5-5---3\8--7-7-5-5-|
D|-3-3-3-3----------3-3-3-3------------7-7-5-5--------7-7-5-5-|

   Intro to second verse
e|---------------|
b|---------------|
g|---------------|
d|-3-3-3-3-3-3-3-|
a|-3-3-3-3-3-3-3-|
D|-3-3-3-3-3-3-3-|
p.m.|............|

   verse(palm mute the whole verse)

   Bridge
East Coast tansplant
e|-----------|
b|-----------|
g|-5-5-5-5-5-|
d|-x-x-x-x-x-|
a|-3-3-3-3-3-|
D|-----------|

Allowance cut off...
e|------------------------------|
b|------------------------------|
g|-------5----------------------|
d|-3-2-0-5-5-5-5-5--------------|
a|-3-2-0-3-5-5-5-5--------------|
D|-3-2-0---5-5-5-5--------------|
p.m.      |........|

If you don't like it you can correct it.
Tap to rate this tab
# A B C D E F G H I J K L M N O P Q R S T U V W X Y Z