Guitaretab - guitar tabs
Song name
# A B C D E F G H I J K L M N O P Q R S T U V W X Y Z

Butch Walker - Hot Girls In Good Moods tab

this song

intro:
------------------------------|
------------------------------|
---------2-------6--7---------|
-2-2-----2--(x3)-6--7---------|x2
-2-2-----0-------4--5---------|
-0-0-3-4----------------------|

verse(piano)
----------|
----------|
----------|
-14-14-14-|  xalot!
----------|
----------|

chorus

-------------------------------------------------------------------------|
-------------------------------------------------------------------------|
-2-2-x-x-2--4-4-x-x-4--6-6-x-x-6---------------2-2-x-x-2--4-4-x-x-4------|
-2-2-x-x-2--4-4-x-x-4--6-6-x-x-6--4-4-x-4------2-2-x-x-2--4-4-x-x-4------|
-0-0-x-x-0--2-2-x-x-2--4-4-x-x-4--4-4-x-2------0-0-x-x-0--2-2-x-x-2------|
----------------------------------2-2-x-2-(3h4)--------------------------|

------------------------------|
------------------------------|
---------2-------6--7---------|
-2-2-----2--(x3)-6--7---------|
-2-2-----0-------4--5---------|
-0-0-3-4----------------------|

verse?

chorus

-------------------------------------------------------------------------|
-------------------------------------------------------------------------|
-2-2-x-x-2--4-4-x-x-4--6-6-x-x-6---------------2-2-x-x-2--4-4-x-x-4------|
-2-2-x-x-2--4-4-x-x-4--6-6-x-x-6--4-4-x-4------2-2-x-x-2--4-4-x-x-4------|
-0-0-x-x-0--2-2-x-x-2--4-4-x-x-4--4-4-x-2------0-0-x-x-0--2-2-x-x-2------|
----------------------------------2-2-x-2-(3h4)--------------------------|
[ Tab from: http://www.guitaretab.com/b/butch-walker/82715.html ]
------------------------------|
------------------------------|
---------2-------6--7---------|
-2-2-----2--(x3)-6--7---------|
-2-2-----0-------4--5---------|
-0-0-3-4----------------------|

solo
  .. not sure the number of elevens do what sounds right
-----------------------------------------------------------------|
-----------------------------------14-14-14-14-14----------12----|
-11-11-11-11-11-11-11-11-11-9-11-9-13-13-13-13-13--13-9-11----13-|
-----------------------------------------------------------------|
-----------------------------------------------------------------|
-----------------------------------------------------------------|

--------------------------------------------|
---------12---------------------------------|
-13-9-11----13-11p9-9--^---^----------------|
-----------------------9-4-7----------------|
--------------------------------------------|
--------------------------------------------|

-------------------------------------------------------------------------|
-------------------------------------------------------------------------|
-2-2-x-x-2--4-4-x-x-4--6-6-x-x-6---------------2-2-x-x-2--4-4-x-x-4------|
-2-2-x-x-2--4-4-x-x-4--6-6-x-x-6--4-4-x-4------2-2-x-x-2--4-4-x-x-4------|
-0-0-x-x-0--2-2-x-x-2--4-4-x-x-4--4-4-x-2------0-0-x-x-0--2-2-x-x-2------|
----------------------------------2-2-x-2-(3h4)--------------------------|

------------------------------|
------------------------------|
---------2-------6--7---------|
-2-2-----2--(x3)-6--7---------|x2
-2-2-----0-------4--5---------|
-0-0-3-4----------------------|

thats all
well at least on the acustic set
but the guitar is the same electric
the outro isnt hard to figure out u can make it yourself if u really need it

rock!

cOdY r.<--wrotethis
Related for Hot Girls In Good Moods tab
×
Hot Girls In Good Moods