Song name
# A B C D E F G H I J K L M N O P Q R S T U V W X Y Z

Butcher John - Wishes tab

Song: Wishes
Singer/Band: Le Couple

Created by: Morganist

This Guitar Tab is a personal interpretation of the the song "Wishes" by Le Couple and 
best viewed using Courier Font.

Intro:
-||---------|---------|---------|---------|
-||-------0-|-------0-|-------0-|-------0-|
-||-----0---|-----0---|-----0---|-----0---|
-||---0-----|---0-----|---0-----|---0-----|
-||---------|---------|---------|---------|
-||-3-------|-3-------|-3-------|-3-------|


Verse 1:

--|---------|---------|---------|---------|
--|-------0-|-----3---|-------0-|-------3-|
--|-----0---|---2---2-|-----0---|-----4---|
--|---0-----|-0-------|---2-----|---4-----|
--|---------|---------|-2-------|-2-------|
--|-3-------|---------|---------|---------|

--|---------|---------|---------|---------|
--|-------1-|-----3---|-------0-|-------0-|
--|-----0---|---2---2-|-----0---|-----0---|
--|---2-----|-0-------|---0-----|---0-----|
--|-3-------|---------|---------|---------|
--|---------|---------|-3-------|-3-------|

--|---------|---------|---------|---------|
--|-------0-|-----3---|-------0-|-------3-|
--|-----0---|---2---2-|-----0---|-----4---|
--|---0-----|-0-------|---2-----|---4-----|
--|---------|---------|-2-------|-2-------|
--|-3-------|---------|---------|---------|

--|---------|---------|---------|---------|
--|-------1-|-----3---|-------0-|-------0-|
--|-----0---|---2---2-|-----0---|-----0---|
--|---2-----|-0-------|---0-----|---0-----|
--|-3-------|---------|---------|---------|
--|---------|---------|-3-------|-3-------|


Verse 2:

--|---------|---------|---------|---------|
--|-------0-|-----3---|-------0-|---------|
--|-----0---|---2---2-|-----0---|-----0---|
--|---0-----|-0-------|---2-----|---2---2-|
--|---------|---------|-2-------|-2-------|
--|-3-------|---------|---------|---------|

--|---------|---------|---------|---------|
--|-------1-|-----3---|-------0-|-------0-|
--|-----0---|---2---2-|-----0---|-----0---|
--|---2-----|-0-------|---0-----|---0-----|
--|-3-------|---------|---------|---------|
--|---------|---------|-3-------|-3-------|

--|---------|---------|---------|---------|
--|-------0-|-----3---|-------0-|---------|
--|-----0---|---2---2-|-----0---|-----0---|
--|---0-----|-0-------|---2-----|---2---2-|
--|---------|---------|-2-------|-2-------|
--|-3-------|---------|---------|---------|

--|---------|---------|---------|-2h3p2---|
--|-------1-|---------|-----3---|------3--|
--|-----2---|-----2---|---2---2-|-------2-|
--|---2-----|---2---2-|-0-------|---------|
--|-0-------|-0-------|---------|---------|
--|---------|---------|---------|---------|


Pre-Chorus 1:

--|---------|---------|---------|---------|
--|-------0-|-------1-|-------0-|-3---3---|
--|-----0---|-----0---|-----0---|-4---4---|
--|---0-----|---2-----|---2-----|---------|
--|---------|-3-------|-2-------|-2---2---|
--|-3-------|---------|---------|---------|

--|---------|---------|---------|---------|
--|-----1-1-|----0--0-|-------1-|----0----|
--|-----0-0-|----0--0-|-----2---|---0-----|
--|---2-----|--2------|---2-----|--2------|
--|-3-------|-2-------|-0-------|-3-------|
--|---------|---------|---------|---------|


Chorus 1:


--|---------|---------|---------|---------|
--|-------0-|-------1-|-------1-|-----3---|
--|-----0---|-----0---|-----2---|---2---2-|
--|---0-----|---2-----|---2-----|-0-------|
--|---------|-3-------|-0-------|---------|
--|-3-------|---------|---------|---------|

--|---------|---------|---------|---------|
--|-------0-|-------1-|-------1-|-----3---|
--|-----0---|-----0---|-----2---|---2---2-|
--|---0-----|---2-----|---2-----|-0-------|
--|---------|-3-------|-0-------|---------|
--|-3-------|---------|---------|---------|

--|---------|---------|---------|---------|
--|-------0-|-------1-|-------1-|-----3---|
--|-----0---|-----0---|-----2---|---2---2-|
--|---0-----|---2-----|---2-----|-0-------|
--|---------|-3-------|-0-------|---------|
--|-3-------|---------|---------|---------|


# Repeat Intro

# Repeat Verse 1

# Repeat Verse 2

# Repeat Pre-chorus 1

# Repeat Chorus 1


Bridge:

--|---------|---------|---------|---------|
--|-----0-0-|-----0-0-|-----3-3-|-----3-3-|
--|-----0-0-|-----0-0-|-----4-4-|-----4-4-|
--|---2-----|---2-----|---4-----|---4-----|
--|-2-------|-2-------|-2-------|-2-------|
--|---------|---------|---------|---------|

--|---------|---------|---------|---------|
--|-----0-0-|-----0-0-|-----3-3-|-----3-3-|
--|-----0-0-|-----0-0-|-----4-4-|-----4-4-|
--|---2-----|---2-----|---4-----|---4-----|
--|-2-------|-2-------|-2-------|-2-------|
--|---------|---------|---------|---------|

--|---------|---------|---------|---------|
--|-------1-|---------|----3----|---------|
--|-----0---|-----0---|---0-----|---------|
--|---2-----|---2---2-|--2------|---------|
--|-3-------|-3-------|-3-------|---------|
--|---------|---------|---------|---------|


--|---------|---------|---------|---------|
--|-------0-|-------1-|-------0-|-------1-|
--|-----0---|-----0---|-----0---|-----2---|
--|---0-----|---2-----|---2-----|---2-----|
--|---------|-3-------|-2-------|-0-------|
--|-3-------|---------|---------|---------|

--|---------|---------|---------|---------|
--|-----0-0-|-----3-3-|-------1-|----3----|
--|-----0-0-|-----4-4-|-----0---|---0-----|
--|---2-----|---4-----|---2-----|--2------|
--|-2-------|-2-------|-3-------|-3-------|
--|---------|---------|---------|---------|


# Repeat Chorus 1


Bridge:

--|---------|---------|---------|---------|
--|-----0-0-|-----0-0-|-----0---|-----0---|
--|-----0-0-|-----0-0-|-----0---|-------0-|
--|---0-----|---0-----|---0-----|---2-----|
--|---------|---------|---------|-2-------|
--|-3-------|-2-------|-0-------|---------|

--|---------|---------|---------|---------|
--|-----1/3-|-3-------|---------|---------|
--|-----0---|-0-------|---------|---------|
--|---2--/4-|---------|---------|---------|
--|-3----/5-|-5-------|---------|---------|
--|---------|---------|---------|---------|


Chorus 2:

--|---------|---------|---------|---------|
--|-----0-0-|-----0-0-|-----0---|-----0---|
--|-----0-0-|-----0-0-|-----0---|-------0-|
--|---0-----|---0-----|---0-----|---2-----|
--|---------|---------|---------|-2-------|
--|-3-------|-2-------|-0-------|---------|

--|---------|---------|
--|-----1---|-----3---|
--|-------0-|---2--2--|
--|---2-----|-0-------|
--|-3-------|---------|
--|---------|---------|

--|---------|---------|---------|---------|
--|-----0-0-|-----0-0-|-----0---|-----3p2-|
--|-----0-0-|-----0-0-|-----0---|--------0|
--|---0-----|---0-----|---0-----|---2-----|
--|---------|---------|---------|-2-------|
--|-3-------|-2-------|-0-------|---------|

--|---------|---------|---------|---------|
--|-----1---|-----3---|----1p0--|-----3---|
--|-------0-|---2---2-|-------0-|----0----|
--|---2-----|-0-------|---2-----|---0-----|
--|-3-------|---------|---------|--2------|
--|---------|---------|-3-------|-3-------|
Tap to rate this tab
# A B C D E F G H I J K L M N O P Q R S T U V W X Y Z