Song name
# A B C D E F G H I J K L M N O P Q R S T U V W X Y Z

Butterfingers - The Chemistry tab

Song: The Chemistry
Album: Transcendence
Band: Butterfingers

Tuning : Half step down & drop Db

Intro : (acoustic guitar)
intro 1
 e|-----------------------------------------------------------------------------------|
 B|---------------5--------5---------5--------5---------5-----------------------------|
 G|-------------------7-------7---------7--------7------------------------------------|
 D|-----------7-----------7-------7--------7--------7---------------------------------|
 A|-------5---------------------------------------------------------------------------|
 E|----5------------------------------------------------------------------------------|

intro 2 :(with violin after play x1)
e|-------------------------------------|---------------------------------------------|
B|-------------------------------------|---------------------------------------------|
G|-------------------------------------|---------------------------------------------|
D|----9---7---5---4---4/2---2\7--------|-------7---7---7---7-------------------------|
A|----9---7---5---4---4/2---2\7--------|-------5---5---5---5-------------------------|
E|-------------------------------------|-------5---5---5---5-------------------------|

e|-----------------------------------|----------------------|
B|-----------------------------------|----------------------|
G|----9---7---5---4---4/2---2\7------|----------------------|
D|----9---7---5---4---4/2---2\7------|-------7---7---7---7--|
A|-----------------------------------|-------5---5---5---5--|
E|-----------------------------------|-------5---5---5---5--|

play intro 2 above  x4 and then

 e|-------------------------------------------------------------|
 B|-------5--------------5--------------5------------5----------|
 G|----------7---------------7--------------7-------------7-----|
 D|--------------7---------------7-------------7-------------7--|  play several times and then
 A|-------------------------------------------------------------|
 E|---5--------------5---------------5-------------5------------|

intro 3 :(lead guitar)
 (overdrive)
e|------------------------------------------|
B|------------------------------------------|
G|------------------------------------------|
D|----2-3-5-2-3-5-3-2-----------------------|
A|----2-3-5-2-3-5-3-2-----------------------|
E|----2-3-5-2-3-5-3-2-----------------------|

intro 4 :
 (acoustic guitar)                                                           (all guitar)
e|-----------------------------------------------                       |--------------------|
B|--------------5--------------------------------                       |--------------------|
G|----4--6--7-----7--6--7--6--4--6--4------------                       |----7--7--7--7--7---|
D|--0--------------------0-----0-----------------      x2 then          |----5--5--5--5--5---|
A|-----------------------------------------------                       |----5--5--5--5--5---|
E|-----------------------------------------------                       |----5--5--5--5--5---|
play intro 4 above 2 times and then verse

Verse :
B
I never again and again count it over
B
Never again and again and again this
G
why ?
B
Come on again and again on my power
B
And on the shame and my pain will I get this ?
G
Why ?

backing rhythm for verse below
e|-------------------------------------------------------|
B|-------5-----5-----------------------------------------|
G|---------7-----7---------------------------------------|
D|-----7-----7-------------------------------------------|
A|---7---------------------------------------------------|
E|-------------------------------------------------------|

             A
it's so real!!!
B                  G           A
Fall in love again ?
   B                      G           A
It's all we have to live
  B                        G      A
Whenever i'm unseen
  B                       G
I blame it on myself

intro 4 :
intro 5 :
verse :
intro 4:

B
Silky coloured
G                     D     intro 3
will you love me ? (Suck !)
B
Silky coloured
G                    D     intro 3
will you leave me ?
B
Silky coloured
G                 D
Indecision (Go !)
B
Silky coloured
G                      D      intro 3
Cause i'm a patient..

solo 1:
e|--------10---------11-------------------|
B|-----------9-----------10---------------|
G|----------------------------------------|
D|-------------------------------|  play--| x4
A|----------------------------------------|
E|----9-----------9-----------------------|

bass (dropped -D) get in after solo 1 play x2
G|-----------------------------------------------------------|
D|-----------------------------------------------------------|
A|-----------------------------------------------------------|
E|---9-9-9-9-9-9-9-9-/7-7-9-9-9-9-9-9------------------------|

and then play this before solo
e|---------------------------------------------|
B|---------------------------------------------|
G|---------------------------------------------|
D|----5--5--5--5--5--5-------------------------|
A|----5--5--5--5--5--5-------------------------|
E|----5--5--5--5--5--5-------------------------|

solo :
e|-------------------------------------|----------------------------------------|
B|-------------------------------------|----------------------------------------|
G|-------------------------------------|----------------------------------------|
D|-------------------------------------|-------7---7---7---7--------------------|
A|----9---7---5---4---4/2---2\7--------|-------5---5---5---5--------------------|
E|-------------------------------------|-------5---5---5---5--------------------|

e|-------------------------------------|------------------------------------|
B|-------------------------------------|------------------------------------|
G|-------------------------------------|------------------------------------|
D|----9---7---5---4---4/2---2\7--------|-------7---7---7---7----------------|
A|-------------------------------------|-------5---5---5---5----------------|
E|-------------------------------------|-------5---5---5---5----------------|

e|------------------------------------------------------------|
B|------------------------------------------------------------|
G|------------------------------------------------------------|
D|---5--5--5--5--5----7--7--7--7--7---------------------------|
A|---5--5--5--5--5----7--7--7--7--7---------------------------|
E|---5--5--5--5--5----7--7--7--7--7---------------------------|

B                    G    A
Fall in love again ?
B                       G     A
It's all we have to live..
B                         G    A
Whenever i'm unseen
B                          G     A
I blame it on myself X 2
B         G G
Hooo!!!!

outro :
 e|-----------------------------------------------------------------------|
 B|---------------5--------5---------5--------5---------5-----------------|
 G|-------------------7-------7---------7--------7------------------------|
 D|-----------7-----------7-------7--------7--------7---------------------|
 A|-------5---------------------------------------------------------------|
 E|----5------------------------------------------------------------------|

Fall in love again ?
Fall in love again ?
Hmmmm....
Tap to rate this tab
 
# A B C D E F G H I J K L M N O P Q R S T U V W X Y Z