Song name
# A B C D E F G H I J K L M N O P Q R S T U V W X Y Z

Butterfingers - Skew tab

intro
e----------2--4b5p4--2--4--2-------------------------------------------|
B---4--5---------------------------------------------------------------|
G----------------------------------------------------------------------|
D----------------------------------------------------------------------|
A----------------------------------------------------------------------|
E----------------------------------------------------------------------|

Verse
e---------------------------------------------------------------------|
B---------------------------------------------------------------------|
G---------------------------------------------------------------------|
D---------------------------------------------------------------------|
A---6--6-6-6-6-6-6-----4--6-------------------------------------------|
E---4--4-4-4-4-4-4--5--------5/4--------------------------------------|

C/o
e---------------------------------------------------------------------|
B---------------------------------------------------------------------|
G---------------------------------------------------------------------|
D-------6-6/4--4-4-4----------------------6-6-------------------------|
A---6---4-4/2--2-2-2--6-6-6-6-6-------2---4-4-------------------------|
E---4---------------------4-4-4-4-4-0-0-------------------------------|

Outro
e---------------------------------------------------------------------|
B---------------------------------------------------------------------|
G---------------------------------------------------------------------|
D-------6-6/4--4-4-4--------------------------------------------------|
A---6---4-4/2--2-2-2--6-6---------------------------------------------|
E---4-----------------4-4---------------------------------------------|
Tap to rate this tab
 
# A B C D E F G H I J K L M N O P Q R S T U V W X Y Z