Song name
# A B C D E F G H I J K L M N O P Q R S T U V W X Y Z

Butterfingers - Figjam tab

-------------------------------------------------------------------------------
			     FIGJAM - Butterfingers
-------------------------------------------------------------------------------
Tabbed by: leakeg
Email: leakeg02@student.uwa.edu.au

Tuning: Standard, EADGBE

E--------------------------------|
B--------------------------------|
G-----0--3b4---------0h3p0-------|
D-----------------2--------3p0---|
A--------------3-----------------|
D-3------------------------------|

repeat a bazzilion times

| h  hammer-on
| p  pull-off
===============================================================================
Tap to rate this tab
 
# A B C D E F G H I J K L M N O P Q R S T U V W X Y Z