Guitaretab - guitar tabs
Song name
# A B C D E F G H I J K L M N O P Q R S T U V W X Y Z

Butterfly Effect - Imago tab

The Butterfly Effect - Imago
Album: Imago
track: #1

This is the first time I've bothered to tab something here, apart from in a
few random comments and stuff, but I've found there aren't many good tabs
for the butterfly effect... they're in drop D or even standard. They use
Drop C as many people have said. this song is rather short and simple
introduction to the imago album. enjoy.

Intro:
D|-------------------------------------------------------------------------|
A|-------------------------------------------------------------------------|
F|-3--3----3--3---3----3--3----3--3---3----2--2----2--2-5-5-2-3--3---2--2--|
C|-------------------------------------------------------------------------|
G|-------------------------------------------------------------------------|
C|-1-1---1---1--1---1--3-3---3---3--3---3--0-0---0---0--------5-5--5-3-3-3-|
[ Tab from: http://www.guitaretab.com/b/butterfly-effect/117206.html ]
D|----------------------------------------------------------------------------|
A|----------------------------------------------------------------------------|
F|-3--3----3--3---3----5--5----5--5----2-2--5---5---5--5---5s7-7--3--3---2--2-|
C|----------------------------------------------------------------------------|
G|----------------------------------------------------------------------------|
C|-1-1---1---1--1---1--3-3---3---3--3--3-3--5-5---5---5--5----5---5-5--5-3-3-3|

D|-------------------------------------------------------------------------|
A|-------------------------------------------------------------------------|
F|-7--7--7-5-7-5-3-2--2--3--5--5--3--3--3-2-3-2-0-2--2-0-2s7-5-7-----------|
C|-------------------------------------------------------------------------|
G|-------------------------------------------------------------------------|
C|-5--5--5---5-----3--3-----3--3-----1--1---------0--0---------------------|

D|-------------------------------------------------------------------------|
A|-7--7--7-5-7-5-3-2--2--3--5--3--3--3--3-2-3-2-0-2--2--2------------------|
F|-------------------------------------------------------------------------|
C|-------------------------------------------------------------------------|
G|-------------------------------------------------------------------------|
C|-5--5--5---5-----3--3-----3-----1--1--1---------0--0--0------------------|

done. yay. timing is not so good, you can work that out, but the notes
should be right, and mostly there, save a few ghost notes somewhere towards
the end.
Related for Imago tab
×
Imago