Song name
# A B C D E F G H I J K L M N O P Q R S T U V W X Y Z

Butterfly Effect - In These Hands tab

i might have 1 or two notes off, my first tab, sorry
 sorry i dont have the whole song, a riff just had to be put up from this kick ass album

D ---------------------------------------------------------------------------|
A --------------------------------17-17-17-----------------13-13-13----------|
F --9--9--16--16--19----16--14-16----------16-16-16--12-14----------14-14-14-|
C ---------------------------------------------------------------------------|
G ---------------------------------------------------------------------------|
C ---------------------------------------------------------------------------|

D --------------------------------------------------------------------------|
A --------------------------------------------------------------------------|
F -------9-9-9--9/10/9---7--9---------9-9-9--9/10/9--7/12-------------------|
C -7-7-7------------------------7-7-7---------------------------------------|
G --------------------------------------------------------------------------|
C --------------------------------------------------------------------------|
Tap to rate this tab
 
# A B C D E F G H I J K L M N O P Q R S T U V W X Y Z