Song name
# A B C D E F G H I J K L M N O P Q R S T U V W X Y Z

Butterfly Effect - Window And The Watcher tab

---------------------------------------------------------------------
	    Window And The Watcher - The Butterfly Effect
---------------------------------------------------------------------
Tabbed by: Kristyn Lee

hmmm.. the intro sounds right but i dunno. I could be wrong.  

Tuning: Drop C

Inro/verse
D|--------------------------------------------------------|
A|------------------------------77-77-7-------------------|
F|---------------------77-77-77-77-77-7-------------------|x4
C|---------------------77-77-77-55-55-5-------------------|
G|-99-99-99-1212-1212--55-55-55-55-55-5-------------------|
C|-99-99-99-1212-1212--55-55-55---------------------------|

0:25                    chorus
D|---------------|  |-------------------------------------|
A|---------------|  |-------------------------------------|
F|---------------|x1|-------------------------------------|x2
C|-777777-444444-|  |-99999-555555--------77777-----------|
G|-555555-222222-|  |-77777-333333-555555-55555-----------|
C|---------------|  |--------------555555-----------------|

0:50
D|--------------------------------------------------------|
A|------------------77~-----------------------------------|
F|-------------77~--77~-----------------------------------|
C|-------------77~--55~-----------------------------------|
G|-99~--1212~--55~--55~-----------------------------------|
C|-99~--1212~--55~----------------------------------------|

0:53                        listen for timing of these notes
D|---7-7p0-5h7p0-10p0-5-7-|   |-12-12-19-17-14------------|
A|------------------------|   |----12---------------------|
F|------------------------|X4 |---------------------------|x2
C|------------------------|   |---------------------------|
G|------------------------|   |---------------------------|
C|------------------------|   |---------------------------|

1:14
D|---------------|  |-------------------------------------|
A|---------------|  |-------------------------------------|
F|---------------|x1|-------------------------------------|x2
C|-777777-444444-|  |-99999-555555--------77777-----------|
G|-555555-222222-|  |-77777-333333-555555-55555-----------|
C|---------------|  |--------------555555-----------------|

1:39
D|---------------------|  |-------------------------------|
A|---------------------|  |-------------------------------|
F|---------------------|x4|-------------------------------|x4
C|-5h7-7--5h7-7--5-7---|  |-11h12-12--11h12-12--11-12-----|
G|---------------------|  |-------------------------------|
C|---------------------|  |-------------------------------|

heavy part
D|--------------------------------------------------------|
A|--------------------------------------------------------|
F|--------------------------------------------------------|
C|--------------------------------------------------------|
G|--------------------------10p7------------9p5-----------|
C|-9-7p0-7h9-0-12p0-7p0-9-0------10p0-7h9-0-----10p0-7h9--|

D|--------------------------------------------------------|
A|--------------------------------------------------------|
F|--------------------------------------------------------|
C|--------------------------------------------------------|
G|--------------------------10p7------------9p6-----------|
C|-9-7p0-7h9-0-12p0-7p0-9-0------10p0-7h9-0-----10p0-7h9--|

       play x3            then this
D|---------------------|----------------------------------|
A|---------------------|----------------------------------|
F|---------------------|----------------------------------|
C|---------------------|----------------------------------|
G|-7h9-9--7h9-9--7-9---|-7h9-9--7h9-5/////9999------------|
C|---------------------|----------------------------------|

then play chorus again and intro riff a few times.


| /  slide up
| \  slide down
| h  hammer-on
| p  pull-off
| ~  vibrato
| +  harmonic
| x  Mute note
==================================================================
Tap to rate this tab
# A B C D E F G H I J K L M N O P Q R S T U V W X Y Z