Song name
# A B C D E F G H I J K L M N O P Q R S T U V W X Y Z

Butterfly Effect - Gone tab

----------------------------------------------------------------------------
		        GONE - The Butterfly Effect
----------------------------------------------------------------------------

Hi there to anyone interested in this phenomenal band and this beautifully arranged song
such a heavy tuning for a ballad!)
I noticed other tabs had this song as being listed in drop D but i watched Kurt in
several times (both live and on dvd) and he keeps the same guitar through the whole 
So
just deduced that u have to be a little quicker on the fretwork because the song is 
in drop C like pretty much every other song in this band's catalogue. Nonetheless
are only parts of this song as i perceive them and i will have more posted ASAP. cheers 
looking! add a review to say what u think if u have time...

Tabbed by: metalx18
Email: metalx18@hotmail.com

Tuning: all guitars DROP C (CGCFAD)        p  pull-off
use heavy distortion throughout           ( ) artificial harmonic

-------INTRO --------
NOTE: listen to the song for 1/4 second pauses in between the first two chord changes to
the correct timing. try muting the strings with your palm
                   1st                       2nd
D|--------------------------------|--------------------------|
A|--------------------------------|--------------------------|
F|--------------------------------|--------------------------|
C|-7-7-7-7-7-7-6-4-2-2-2-2-4-2-2--|-7-7-7-7-7-7-6-4--2-2-2---|
G|-4-4-4-4-4-4-4-4-2-2-2-2-2-2-2--|-4-4-4-4-4-4-4-4--2-2-2---|
C|-4-4-4-4-4-4-4-4-2-2-2-2-2-2-2--|-4-4-4-4-4-4-4-4--2-2-2---|

                                                   3rd
D|---------------                    |---------------------------------|
A|---------------                    |---------------------------------|
F|---------------  REPEAT THE FIRST  |---------------------------------|
C|-2-2-2-4-2-2---    SECTION ONLY    |-7-7-7-7-6-6-6-6-4-4-4-4-2-2-2-2-|
G|-2-2-2-2-2-2---  then go straight  |-0-0-0-0-0-0-0-0-0-0-0-0-0-0-0-0-|
C|-2-2-2-2-2-2---       to >>>>      |---------------------------------|

                    4th
D|-----------------------------------------|
A|-----------------------------------------|
F|-----------------------------------------|
C|-7-7-7-7-7-6-6-6-6-6-4-4-4-4-4-2-2-2-2-2-|
G|-0-0-0-0-0-0-0-0-0-0-0-0-0-0-0-0-0-0-0-0-|
C|-----------------------------------------|


The verses use these four patterns and playing methodologies in different orders. play
as indicated below:


-----VERSE ONE------
NOTE: this numbers indicate the specific patterns with the numbers mentioned above. play
in the order shown:

1ST, 2ND, 1ST, 3RD, 1ST, 2ND, 1ST, 3RD, 4TH


-----CHORUS-------
NOTE: sounds good both clean and distorted. this is only part of it!

                             5th
D|---------------------------------------------------|
A|---------------------------------------------------|
F|---------------------------------------------------|
C|---------------------------------------------------|
G|-11-11-11-11-11s12-12-12-12-12s9-9-9-9-9s7-7-7-7-7-|
C|-0-0-0-0-0-0-0-0-0-0-0-0-0-0-0-0-0-0-0-0-0-0-0-0-0-|

play 5TH again, then 3RD and 4TH, then 5th again and finally:

                    6th
D|---------------------------------------------------------------------|
A|---------------------------------------------------------------------|
F|---------------------------------------------------------------------|
C|----------------------------x-14-14-14-14-14-14-14-14-14-14-16-16-16-|
G|-11-11-11-11-11s12-12-12-12-0-0-0-0-0-0-0-0-0-0-0-0-0-0-0-0-0-0-0-0--|
C|-0-0-0-0-0-0-0-0-0-0-0-0-0-------------------------------------------|

D|-------------------------------------(12)-------------|
A|------------------------------------------------------|
F|------------------------------12p0--------------------|
C|-16-16-16-16-16-16-14-14-14---------------------------|
G|-0-0-0-0--0-0-0-0-0-0-0-0-0-----------------12--------|~~~~~~  let ring, then
C|--------------------------------------------0~~~~~~~~-|


------INTERLUDE---------

D|--------------------------------|--------------------------------|
A|--------------------------------|--------------------------------|
F|--------------------------------|--------------------------------|
C|-7-7-7-7-7-7-6-4-2-2-2-2-4-2-2--|-7-7-7-7-7-7-6-4--2-2-2---2-2-2-|
G|-4-4-4-4-4-4-4-4-2-2-2-2-2-2-2--|-4-4-4-4-4-4-4-4--2-2-2---2-2-2-|
C|-4-4-4-4-4-4-4-4-2-2-2-2-2-2-2--|-4-4-4-4-4-4-4-4--2-2-2---2-2-2-|


----VERSE TWO----
same patterns again

1ST, 2ND, 3RD, 1ST, 2ND, 4TH


---CHORUS AGAIN----


I am yet to figure out the BRIDGE but am working on it. i am sure it is just a variation
the chorus but i have figured out the heavy chord strums of the bridge just before the
which are:

D|--------------------------------------------|
A|--------------------------------------------|
F|--------------------------------------------|
C|-4-4--4-4--4-4--4-4--4-4--4-4--2-2--2-2--0~-|
G|-4-4--4-4--4-4--4-4--4-4--4-4--2-2--2-2--0~-|
C|-4-4--4-4--4-4--4-4--4-4--4-4--2-2--2-2--0~-|

then u get the solo and after that:

D|-----------------------------------------|
A|-----------------------------------------|
F|-----------------------------------------|
C|-7-7-7-7-7-6-6-6-6-6-4-4-4-4-4-2-2-2-2-2-|   repeat
G|-0-0-0-0-0-0-0-0-0-0-0-0-0-0-0-0-0-0-0-0-|
C|-----------------------------------------|


---CHORUS----
NOTE: there is a great deal of variation in here, which i will figure out later but
now u can play the chorus pattern above as it pretty much follows the song key anyway


---OUTRO---

D|-------------------------------|
A|-------------------------------|
F|-------------------------------|
C|-7-7--6-6--4-4--2-2--0~~~~~~~~-|
G|-4-4--4-4--4-4--2-2--0~~~~~~~~-|
C|-4-4--4-4--4-4--2-2--0~~~~~~~~-|


THERE WE GO! there is at least a set of guidelines for the song for those of you who
want to play some of it. i am still figuring out the complicated notes and bridge
but for now what I've listed should be enough to console those of you having trouble 
a good tab of this brilliant song. Remember to consult the above patterns for chords and
to the song for appropriate rhythm.

HAVE FUN!

metalx
Tap to rate this tab
# A B C D E F G H I J K L M N O P Q R S T U V W X Y Z