Song name
# A B C D E F G H I J K L M N O P Q R S T U V W X Y Z

Butterfly Effect - The Way tab

-------------------------------------------------------------------
	          The Way - The Butterfly Effect
-------------------------------------------------------------------
Tabbed by: Kristyn Lee
Email: spot_the_village_loony_836@hotmail.com

Tuning: Drop C

Verse, played about 4 times
D|------------------------------|
A|------------------------------|
F|------------------------------|
C|---------------------------6--|
G|---2h4p2h4p2h4p2h4p2h4p2h4----|
C|------------------------------|
sweet riff
D|------------------------------------------------------|
A|------------------------------------------------------|
F|---------------------------6h7p6----------------------|
C|--------0h2h4-0h4h6--6h7p6-------9p7p6----------------|
G|--0h2h4--------------------------------7p5p4-2h4-4----|
C|------------------------------------------------------|
pre-chorus       "it's alright..."
D|-------------------------------------------------|
A|-------------------------------------------------|
F|-------------------------------------------------|
C|------66----66----66-------6---------------------|
G|--444-44-44-44-44-44-0h2h4-----------------------|
C|-------------------------------------------------|
    ...    ..    ..  

Chorus
D|-------------------------------------------------|
A|-------------------------------------------------|
F|-------------------------------------------------|
C|-------66-7-----66-7-----66-7-----66-7-----------|
G|---555------555------555------555----------------|
C|-------------------------------------------------|
     ... ..   ... ..   ... ..   ... ..
D|-------------------------------------------------|
A|-------------------------------------------------|
F|-------------------------------------------------|
C|---444-66-7--444-66-7--444-66-7--444-66-7--------|
G|-------------------------------------------------|
C|-------------------------------------------------|
     ... ..    ... ..    ... ..    ... ..
D|-------------------------------------------------|
A|-------------------------------------------------|
F|-------7-9-----7-9-----7-9-----7-9---------------|
C|-------------------------------------------------|
G|---888-----888-----888-----888-------------------|
C|-------------------------------------------------|
     ... . . ... . . ... . . ... . . 


Listen for timing  

  "it's how it is...how it used to be..."
D|-------------------------------------------------|
A|---10--12--10--12--5--10-------------------------|
F|----9--10---9--10--4---9-------------------------|
C|----7---9---7---9--2---7-------------------------|
G|-------------------------------------------------|
C|-------------------------------------------------|

ughh, I am such a lazyass. Thats about all i've done, no solo...yet

Don't know if i'll ever get around to it. 


| .  palm mute
| /  slide up
| \  slide down
| h  hammer-on
| p  pull-off
| ~  vibrato
| +  harmonic
| x  Mute note
======================================================================
Tap to rate this tab
 
# A B C D E F G H I J K L M N O P Q R S T U V W X Y Z