Song name
# A B C D E F G H I J K L M N O P Q R S T U V W X Y Z

Butterfly Effect - Gone tab

-----------------------------------------------------------
	       Gone - The Butterfly Effect
-----------------------------------------------------------
Tabbed by: Kristyn Lee
Email: spot_the_village_loony_836@hotmail.com

Tuning: Drop C

Intro
D|-------------------------------------------|
A|-------------------------------------------|
F|-------------------------------------------|x3
C|---77777766-666666644----------------------|
G|---44444444-222222222----------------------|
C|---44444444-222222222----------------------|

D|-------------------------------------------|
A|-------------------------------------------|
F|-------------------------------------------|x2
C|---7777-6666-4444-2222---------------------|
G|---0000-0000-0000-0000---------------------|
C|-------------------------------------------|

   "i'm all alone..."
D|-------------------------------------------|
A|-------------------------------------------|
F|-------------------------------------------|x3
C|---77777766-666666644----------------------|
G|---44444444-222222222----------------------|
C|---44444444-222222222----------------------|
     "these are my promises..."
D|-------------------------------------------|
A|-------------------------------------------|
F|-------------------------------------------|x1
C|---7777-6666-4444-2222---------------------|
G|---0000-0000-0000-0000---------------------|
C|-------------------------------------------|

   "i hope you're winning the war..."
D|-------------------------------------------|
A|-------------------------------------------|
F|-------------------------------------------|x3
C|---77777766-666666644----------------------|
G|---44444444-222222222----------------------|
C|---44444444-222222222----------------------|
     "i swear..."
D|-------------------------------------------|
A|-------------------------------------------|
F|-------------------------------------------|x2
C|---7777-6666-4444-2222---------------------|
G|---0000-0000-0000-0000---------------------|
C|-------------------------------------------|


    "i don't want you..."
D|----------------------------------------|
A|----------------------------------------|
F|---13131313/1414141414\11111111\9999----|x2
C|---x-x-x-x--x-x-x-x-x--x-x-x-x--xxxx----|
G|---11111111/1212121212\9-9-9-9-\7777----|
C|----------------------------------------|
    "i've got the sun in my eyes..."
D|-------------------------------------------|
A|-------------------------------------------|
F|-------------------------------------------|x2
C|---7777-6666-4444-2222---------------------|
G|---0000-0000-0000-0000---------------------|
C|-------------------------------------------|


    "i just want you..."
D|----------------------------------------|
A|----------------------------------------|
F|---13131313/1414141414\11111111\9999----|x2
C|---x-x-x-x--x-x-x-x-x--x-x-x-x--xxxx----|
G|---11111111/1212121212\9-9-9-9-\7777----|
C|----------------------------------------|
    "I just want you to know, inside of me forever you'll go"
D|-------------------------------------------------------------------|
A|-------------------------1717171717171717----------------------17--|
F|--1313131313/1414141414/--x-x-x-x-x-x-x-x-------------------14-----|
C|--x-x-x-x-x--x-x-x-x-x---1414141414141414/16-16-16-16p14-14--------|
G|--1111111111/1212121212--------------------------------------------|
C|-------------------------------------------------------------------|

         
D|-------------------------------------------|
A|-------------------------------------------|
F|-------------------------------------------|x2
C|---77777766-6666-4444----------------------|
G|---44444444-2222-2222----------------------|
C|---44444444-2222-2222----------------------|

   "now i just wanna go home..."
D|-------------------------------------------|
A|-------------------------------------------|
F|-------------------------------------------|x3
C|---77777766-666666644----------------------|
G|---44444444-222222222----------------------|
C|---44444444-222222222----------------------|
   "given these promises..."
D|-------------------------------------------|
A|-------------------------------------------|
F|-------------------------------------------|x1
C|---7777-6666-4444-2222---------------------|
G|---0000-0000-0000-0000---------------------|
C|-------------------------------------------|

   "now i've been running too long..."
D|-------------------------------------------|
A|-------------------------------------------|
F|-------------------------------------------|x3
C|---77777766-666666644----------------------|
G|---44444444-222222222----------------------|
C|---44444444-222222222----------------------|

   "i'm afraid you're gone..."
D|-------------------------------------------|
A|-------------------------------------------|
F|-------------------------------------------|x1
C|---7777-6666-4444-2222---------------------|
G|---0000-0000-0000-0000---------------------|
C|-------------------------------------------|
   "i don't want you..."
D|----------------------------------------|
A|----------------------------------------|
F|---13131313/1414141414\11111111\9999----|x2
C|---x-x-x-x--x-x-x-x-x--x-x-x-x--xxxx----|
G|---11111111/1212121212\9-9-9-9-\7777----|
C|----------------------------------------|
    "i've got the sun in my eyes..."
D|-------------------------------------------|
A|-------------------------------------------|
F|-------------------------------------------|x2
C|---7777-6666-4444-2222---------------------|
G|---0000-0000-0000-0000---------------------|
C|-------------------------------------------|

   "i just want you..."
D|----------------------------------------|
A|----------------------------------------|
F|---13131313/1414141414\11111111\9999----|x2
C|---x-x-x-x--x-x-x-x-x--x-x-x-x--xxxx----|
G|---11111111/1212121212\9-9-9-9-\7777----|
C|----------------------------------------|

     "if forever exists..."
D|------------------------------------------|
A|------------------------------------------|
F|------------------------------------------|x1
C|------4---4---4---4---4---4---4---2-------|
G|------------------------------------------|
C|---4----4---4---4---2---2---2---2---------|

    
D|--------------------------------------|
A|--------------------------------------|
F|--13131313/1414141414/2121212121------|
C|--x-x-x-x--x-x-x-x-x--x-x-x-x-x-------|
G|--11111111/1212121212/1919191919------|
C|--------------------------------------|

D|--------------------------------------|
A|----------------------1919191919------|
F|--13131313/1414141414-x-x-x-x-x-------|
C|--x-x-x-x--x-x-x-x-x--1616161616------|
G|--11111111/1212121212-----------------|
C|--------------------------------------|

"if forever exists..."
D|-----------------------------|
A|-----------------------------|
F|-----------------------------|
C|--77-77-77-77-77-77-44-2-----|
G|--44-44-44-44-44-44-22-2-----|
C|--44-44-44-44-44-44-22-2-----|

solo
D|----------9--------------------------------9----9h10p9-9----|
A|---9-9h10---10p9h10h9p10p9~-----------9h10---10-------------|
F|----------------------------7h9p7\\-------------------------|
C|------------------------------------------------------------|
G|------------------------------------------------------------|
C|------------------------------------------------------------|

D|--22p20-20--------------------------------------------------|
A|-----------17p15p14-14h15-14\\\-----------------------------|
F|------------------------------------------------------------|
C|------------------------------------------------------------|
G|------------------------------------------------------------|
C|------------------------------------------------------------|

  "i've got the sun in my eyes..."
D|-------------------------------------------|
A|-------------------------------------------|
F|-------------------------------------------|x2
C|---7777-6666-4444-2222---------------------|
G|---0000-0000-0000-0000---------------------|
C|-------------------------------------------|
   "now i've been running too long..."
D|----------------------------------------|
A|----------------------------------------|
F|---13131313/1414141414\11111111\9999----|x2
C|---x-x-x-x--x-x-x-x-x--x-x-x-x--xxxx----|
G|---11111111/1212121212\9-9-9-9-\7777----|
C|----------------------------------------|
   "i don't want you..."
D|-------------------------------------------|
A|-------------------------------------------|
F|-------------------------------------------|x2
C|---7777-6666-4444-2222---------------------|
G|---0000-0000-0000-0000---------------------|
C|-------------------------------------------|
   "i've got the sun in my eyes yeah..."
D|----------------------------------------|
A|----------------------------------------|
F|---13131313/1414141414\11111111\9999----|x1
C|---x-x-x-x--x-x-x-x-x--x-x-x-x--xxxx----|
G|---11111111/1212121212\9-9-9-9-\7777----|
C|----------------------------------------|

D|------------------------------------|
A|-----------------------1717171717---|
F|---13131313/1414141414-x-x-x-x-x----|x1
C|---x-x-x-x--x-x-x-x-x--1414141414---|
G|---11111111/1212121212--------------|
C|------------------------------------|

2nd solo
D|-------------------------------------------------|
A|---------------------------------------17--------|
F|--------------------14---------------------------|
C|--14/16-16-16-14h16-----14h16-14h16-14~----14~---|
G|-------------------------------------------------|
C|-------------------------------------------------|

D|------------------------------------|
A|-----------------------1717171717---|
F|---13131313/1414141414-x-x-x-x-x----|x1
C|---x-x-x-x--x-x-x-x-x--1414141414---|
G|---11111111/1212121212--------------|
C|------------------------------------|

D|------------------------------------|
A|-----------------------1919191919---|
F|---13131313/1414141414-x-x-x-x-x----|x1
C|---x-x-x-x--x-x-x-x-x--1616161616---|
G|---11111111/1212121212--------------|
C|------------------------------------|

D|-------------------|
A|-------------------|
F|-------------------|
C|---77-77-66-44-0~--|
G|---44-44-22-22-0~--|
C|---44-44-22-22-0~--|

End


| /  slide up
| \  slide down
| h  hammer-on
| p  pull-off
| ~  vibrato
| +  harmonic
| x  Mute note
==============================================================
Tap to rate this tab
# A B C D E F G H I J K L M N O P Q R S T U V W X Y Z