Song name
# A B C D E F G H I J K L M N O P Q R S T U V W X Y Z

Butterfly Effect - Sweet And Low tab

-------------------------------------------------------------
	    Sweet And Low - The Butterfly Effect
-------------------------------------------------------------
Tabbed by: Kristyn Lee
Email: spot_the_village_loony_836@hotmail.com

Tuning: Drop C

Intro/verse
D|---------------------------------------------|
A|---------------------------------------------|
F|---------------------------------------------|
C|---------------------------------------------|
G|--5p0-----5p0---------5p0-----5p0------------|
C|------0h8-----0h8-000-----0h8-----0h8-000----|
                    ...                 ...
D|-------------------------------------------|
A|-------------------------------------------|
F|-------------------------------------------|
C|-------------------------------------------|
G|-3p0----3p0---------3p0-----3p0------------|
C|-----h6-----0h6-000-----0h6-----0h6-000----|
                  ...                 ...
Heavy part
D|--------------------------------------------------------|
A|--------------------------------------------------------|
F|--------------------------------------------------------|
C|--------------------------------------------------------|
G|--------------------------------------------------------|
C|--8p0-0-8p0-000-8p0-0-8p0-000-8p0-0-8p0-000-8p0-0-8p0---|
              ...              ...           ...
D|--------------------------------------------------------|
A|--------------------------------------------------------|
F|--------------------------------------------------------|
C|--------------------------------------------------------|
G|--------------------------------------------------------|
C|--6p0-0-6p0-000-6p0-0-6p0-000-6p0-0-6p0-000-6p0-0-6p0---|
              ...           ...           ...
  "this is your life..."
D|--0-0-0-0---------------------------------|
A|--6-6-6-6---------------------------------|
F|--5-5-5-5---------------------------------|x4
C|--3-3-3-3---------------------------------|
G|--3-3-3-3-1-1-0-1~-1p0h1-1-1-0-1-1p0h1----|
C|--3-3-3-3-1-1-0-1~-1p0h1-1-1-0-1-1p0h1----|
            . . . .        . . . .
2:27
D|-----------------------------------------|
A|--8888888888888888---5555666655556666----|
F|--8888888888888888---5555555555555555----|x4
C|--6666666666666666---3333333333333333----|
G|--6666666666666666---3333333333333333----|
C|--6666666666666666---3333333333333333----|

last part
D|-----------------------------|
A|---1111111111111111----------|
F|---1010101010101010----------|
C|---8-8-8-8-8-8-8-8-----------|
G|---8-8-8-8-8-8-8-8---0-1~----|
C|---8-8-8-8-8-8-8-8---0-1~----|
                       .

| . palm mute
| /  slide up
| \  slide down
| h  hammer-on
| p  pull-off
| ~  vibrato
| +  harmonic
| x  Mute note
================================================================
Tap to rate this tab
# A B C D E F G H I J K L M N O P Q R S T U V W X Y Z