Song name
# A B C D E F G H I J K L M N O P Q R S T U V W X Y Z

Butterfly Effect - Room Without A View tab

---------------------------------------------------                       
Room Without A View - The Butterfly Effect
---------------------------------------------------
Tabbed by: Kristyn Lee
Email: spot_the_village_loony_836@hotmail.com

I decided to do a more accurate tab of this song.
This one is in Drop D tuning.

Intro
e|-----------------------------------------------------------|
B|---5-///12-(12)-(12)-(12)-5///12-(12)-(12)-(12)------------|
G|-----------------------------------------------------------|
D|-----------------------------------------------------------|
A|-----------------------------------------------------------|
D|-----------------------------------------------------------|

e|------------------------------------------------10-10-10---|
B|--10~---10--\\7-(7)-7777--5~-///12-(12)-5-///12------------|
G|-----------------------------------------------------------|
D|-----------------------------------------------------------|
A|-----------------------------------------------------------|
D|-----------------------------------------------------------|

e|---9------------------|
B|-----10~---\\7~-------|
G|----------------------|
D|----------------------|
A|----------------------|
D|----------------------|
0:27
e|----------------------------------------------10-10-10p9-----|
B|---5-5^-5-/12-12-12-12-12-5-5^-5-/12-12-12-12----------------|
G|-------------------------------------------------------------|
D|-------------------------------------------------------------|
A|-------------------------------------------------------------|
D|-------------------------------------------------------------|

e|---------------12------12------12----12---9---9-10-9---99---9-10-9---|
B|---10-10-10-10---10-10---10-10----10----7---7--------7----7----------|
G|---------------------------------------------------------------------|
D|---------------------------------------------------------------------|
A|---------------------------------------------------------------------|
D|---------------------------------------------------------------------|

e|----------------------------------------------10-10-10p9-----|
B|---5-5^-5-/12-12-12-12-12-5-5^-5-/12-12-12-12----------------|
G|-------------------------------------------------------------|
D|-------------------------------------------------------------|
A|-------------------------------------------------------------|
D|-------------------------------------------------------------|

e|----------------------------12----12----9---9-10-9---99--9-10-9---|
B|---12-12-12-12-12\10--10-10----10----\7---7--------7---7----------|
G|------------------------------------------------------------------|
D|------------------------------------------------------------------|
A|------------------------------------------------------------------|
D|------------------------------------------------------------------|
Verse
e|--------0-000------0-000------0-000------0~---|
B|-----5555-555---5555-555---5555-555---5555~---|
G|-----6666-666---6666-666---6666-666---6666~---|
D|---4----------4----------4----------4---------|
A|----------------------------------------------|
D|----------------------------------------------|

Chorus
e|-----000000---000000---000-0000-00000-------|
B|-----555555---555555---555-5555h77777-------|
G|-----666666---666666---666-6666-66666-------|
D|---4--------4--------4----------------------|
A|---4--------4--------4----------------------|
D|---4--------4--------4----------------------|

e|-----000000---000000------555555-------------|
B|-----555555---555555------555555-------------|
G|-----666666---666666------xxxxxx-------------|
D|---0--------0--------44444444444-------------|
A|---0--------0--------22222222222-------------|
D|---0--------0--------------------------------|

2nd Verse     
"for so long..."
e|--------0-000------0-000------0-000------0-000-----|
B|-----5555-555---5555-555---5555-555---5555h777-----|
G|-----6666-666---6666-666---6666-666---6666-666-----|
D|---4----------4----------4----------4--------------|
A|---------------------------------------------------|
D|---------------------------------------------------|
"was i so wrong..."
e|--------0-000------0-000------0-000------0-000-----|
B|-----7777-777---7777-777---7777-777---7777p555-----|
G|-----6666-666---6666-666---6666-666---6666-666-----|
D|---4----------4----------4----------4--------------|
A|---------------------------------------------------|
D|---------------------------------------------------|
"another casualty..."
e|--------0-000------0-000------0-000------0-000-----|
B|-----5555-555---5555-555---5555-555---5555h777-----|
G|-----6666-666---6666-666---6666-666---6666-666-----|
D|---4----------4----------4----------4--------------|
A|---------------------------------------------------|
D|---------------------------------------------------|
"stand me up..."
e|--------0-000----0-000----0-000----0-000----|
B|-----7777-777-7777-777-7777-777-7777-777----|
G|-----6666-666-6666-666-6666-666-6666-666----|
D|-----4444-444-4444-444-4444-444-4444-444----|
A|--------------------------------------------|
D|--------------------------------------------|

Repeat Chorus

Bridge
e|-------------------------------------------------|
B|-------------------------------------------------|
G|-------------------------------------------------|
D|-------------------------------------------------|
A|---4-4-2-4-xx-2-4-0-2-4-4-4-2-4-xx-2-4-0-2-4-----|
D|---4-4-2-4-xx-2-4-0-2-4-4-4-2-4-xx-2-4-0-2-4-----|

e|----------------------------------------------|
B|----------------------------------------------|
G|----------------------------------------------|
D|--44-4-24-2-4-0-2-44-2-4^^^-------------------|
A|----------------------------------------------|
D|----------------------------------------------|

e|-------------------------------------------------|
B|-------------------------------------------------|
G|-------------------------------------------------|
D|-------------------------------------------------|
A|---4-4-2-4-xx-2-4-0-2-4-4-4-2-4-xx-2-4-0-2-4-----|
D|---4-4-2-4-xx-2-4-0-2-4-4-4-2-4-xx-2-4-0-2-4-----|

e|-----------------------------------------|
B|-----------------------------------------|
G|------------------------------7p6--------|
D|---4^-2-4-2-4-0-2-4/7p6-7p6-7------------|
A|-----------------------------------------|
D|-----------------------------------------|

e|--------------------------------5555-----------|
B|--------------------------------5555-----------|
G|-----------------------------------------------|
D|-----------------------------44----------------|
A|---4--2-4-0-2-4-4-4-/7-0-0-0-22----------------|
D|---4--2-4-0-2-4-4-4-/7-0-0-0-------------------|

e|------------------------------10p99-10p99-------------|
B|------------------------------------------------------|
G|------------------------------------------------------|
D|------------------------------------------4-4-4-4-----|
A|---4--2-4-0-2-4-4-4-/7-0-0-0--------------2-2-2-2-----|
D|---4--2-4-0-2-4-4-4-/7-0-0-0--------------------------|

Play chorus again, different timing though.
Listen to the song and you'll get it. 


************************************

| /   slide up
| \   slide down
| h   hammer-on
| p   pull-off
| ~   vibrato
| +   harmonic
| x   Mute note
| b   Bend
| pb  Pre-bend
| br  Bend release
| pbr Pre-bend release
| brb Bend release bend

************************************
Tap to rate this tab
 
# A B C D E F G H I J K L M N O P Q R S T U V W X Y Z