Song name
# A B C D E F G H I J K L M N O P Q R S T U V W X Y Z

Butterfly Effect - 7 Days tab

-------------------------------------------------------------
	        7 Days - The Butterfly Effect
-------------------------------------------------------------
Tabbed by: Kristyn Lee
Email: spot_the_village_loony_836@hotmail.com

Tuning: Drop D

Try this out guys. This is much better than my other tab of this song. 

e|------------------------|
B|------------------------|
G|------------------------|x2
D|----3~~--5~~---8~~------|
A|------------------------|
D|------------------------|

e|----------------------------------------------------------------------|
B|----------------------------------------------------------------------|
G|----3--3--22-22--3--3--22---------------------------------------------|
D|----------------------------55-----3--3---33--33----5---5---55---55---|
A|----------------------------------------------------------------------|
D|--5--5---5--5--5--5---5---5----0h1--1---1---1---1h3---3---3----3------|
    .  .   .  .  .  .   .   .      .  .   .   .     .   .   .    .
e|------------------------------------------------------------------------|
B|------------------------------------------------------------------------|
G|----3--3--22-22--3--3--22-----------------------------------------------|
D|----------------------------55-----3--3---33--33----5---5---55---5/7\5--|
A|------------------------------------------------------------------------|
D|--5--5---5--5--5--5---5---5----0h1--1---1---1---1h3---3---3----3--------|
    .  .   .  .  .  .   .   .      .  .   .   .     .   .   .    .
e|------------------------------------------------------------------------|
B|------------------------------------------------------------------------|
G|----3--3--22-22--3--3--22-----------------------------------------------|
D|----------------------------55-----3--3---33--33----5---5---55---5/7\5--|
A|------------------------------------------------------------------------|
D|--5--5---5--5--5--5---5---5----0h1--1---1---1---1h3---3---3----3--------|
    .  .   .  .  .  .   .   .      .  .   .   .     .   .   .    .
e|-------------------------------------------------------------------|
B|-------------------------------------------------------------------|
G|-----3--3---22-----------3---3---22---55---3---3---22--------------|
D|-----------------55p0-----------------------------------55p0-------|
A|-------------------------------------------------------------------|
D|---5--5---5----5------5----5---5----5----5---5---5----5------------|
     .  .   .    .      .    .   .    .    .   .   .    .
e|---------------------------|
B|---------------------------|
G|-----3---3---22---55-------|
D|---------------------------|
A|---------------------------|
D|---5---5---5----5----------|
     .   .   .    .

Chorus       play x2
e|---------------------------------------------------------------|
B|-------6666666-----666666h8------------------------------------|
G|-------7777777-----777777-7------------------------------------|
D|---5-5---------5-5-----------1-1-3-3333333--3-3-5-55555/7\5~---|
A|---5-5---------5-5-----------1-1------------3-3----------------|
D|---5-5---------5-5-----------1-1------------3-3----------------|


e|-----------------------------------|
B|-----------------------------------|
G|-----------------------------------|
D|---3~---5~----8~-----3~~---5~~-----|
A|-----------------------------------|
D|-----------------------------------|

2nd Verse
e|------------------------------------------------------------------------|
B|------------------------------------------------------------------------|
G|----3--3--22-22--3--3--22-----------------------------------------------|
D|----------------------------55-----3--3---33--33----5---5---55---5/7\5--|
A|------------------------------------------------------------------------|
D|--5--5---5--5--5--5---5---5----0h1--1---1---1---1h3---3---3----3--------|
    .  .   .  .  .  .   .   .      .  .   .   .     .   .   .    .

e|-------------------------------------------------------------------|
B|-------------------------------------------------------------------|
G|-----3--3---22-----------3---3---22---55---3---3---22--------------|
D|-----------------55p0-----------------------------------55p0-------|
A|-------------------------------------------------------------------|
D|---5--5---5----5------5----5---5----5----5---5---5----5------------|
     .  .   .    .      .    .   .    .    .   .   .    .
e|---------------------------|
B|---------------------------|
G|-----3---3---22---55-------|
D|---------------------------|
A|---------------------------|
D|---5---5---5----5----------|
     .   .   .    .

Chorus       play x2
e|---------------------------------------------------------------|
B|-------6666666-----666666h8------------------------------------|
G|-------7777777-----777777-7------------------------------------|
D|---5-5---------5-5-----------1-1-3-3333333--3-3-5-55555/7\5~---|
A|---5-5---------5-5-----------1-1------------3-3----------------|
D|---5-5---------5-5-----------1-1------------3-3----------------|

   "i am always on the outside..."
e|-------------------------------------------|
B|-------------------------------------------|
G|-------------------------------------------|
D|-------3-33---33---33----5-55--55---55-----|
A|-------------------------------------------|
D|--11-1------1----1----33------3---3--------|

e|-------------------------------------------|
B|-------------------------------------------|
G|-------------------------------------------|
D|-------3-33---33---33----5-55-55/7\5-------|
A|-------------------------------------------|
D|--11-1------1----1----33-------------------|

first solo
e|----------------------------------------------------------|
B|--------------------------------------6-------------6-----|
G|---------------------------------7-----------7------------|
D|---5/8-8-----8-7-7----7---797979--7979-797979--7979-------|
A|---------10--------10-------------------------------------|
D|----------------------------------------------------------|
                            ......  .... ......  ....
e|---------------------------|
B|---------8-----10-8~~------|
G|---------------------------|
D|---8-5-5----/8-------------|
A|---------------------------|
D|---------------------------|

Listen for these chords
e|------------------------------------------------|
B|-------111111111111111111111111111110101010-----|
G|-------101010101010101010101010101010101010-----|
D|---8-8-8-8-8-8-8-8-8-8-8-8-8-8-8-8-8-8-8-8------|
A|---8-8-8-8-8-8-8-8-8-8-8-8-8-8-8-8-8-8-8-8------|
D|---8-8-8-8-8-8-8-8-8-8-8-8-8-8-8-8-8-8-8-8------|

e|------------------------------------------------|
B|------13131313131313131313--------11111110------|
G|------12121212121212121212--------12121212------|
D|--0-0-0-0-0-0-0-0-0-0-0-0-0-0-0-0-0-0-0-0-------|
A|--0-0-0-0-0-0-0-0-0-0-0-0-0-0-0-0-0-0-0-0-------|
D|--0-0-0-0-0-0-0-0-0-0-0-0-0-0-0-0-0-0-0-0-------|

2nd solo
e|-------------13-15-13--10-8-------12p10-12\10^----------------|
B|-----8-10-11----------------11-11----------------8-8-11-------|
G|--------------------------------------------------------------|
D|--------------------------------------------------------------|
A|---5----------------------------------------------------------|
D|---5----------------------------------------------------------|


e|------------------13----------13-------15--------|
B|------------10h11----11-10-11----10-11-----------|
G|------10h12--------------------------------------|
D|---12--------------------------------------------|
A|-------------------------------------------------|
D|-------------------------------------------------|


Final Chorus       play x2
e|-------------------------------------------------------------------|
B|-------6666666-----66-----66653------------------------------------|
G|-------7777777-----77-----77753------------------------------------|
D|---5-5---------5-5----5-5--------1-1-3-333-3333--3-3-5555---55-----|
A|---5-5---------5-5----5-5--------1-1------1------3-3------3--------|
D|---5-5---------5-5----5-5--------1-1------1------3-3------3--------|




************************************

| /   slide up
| \   slide down
| h   hammer-on
| p   pull-off
| ~   vibrato
| +   harmonic
| .   Mute note
| b   Bend
| pb  Pre-bend
| br  Bend release
| pbr Pre-bend release
| brb Bend release bend

************************************
Tap to rate this tab
 
# A B C D E F G H I J K L M N O P Q R S T U V W X Y Z