Butterfly Effect - Black Lung tab

01 Black Lung
The Butterfly Effect EP

Hello. This is my first tab, ever! So this might not be as fully accurate,
no books, just learnt it off by ear.

The song's tuning is CGCFAD (drop C) and listen to the music to get the
strumming right as I am pretty bad at trying to tab how it is supposed to be
played...

INTRO (clean guitar / chorus)
|-----------------------------------------|
|-----------------------------------------|
|-x--x-x-x-x-x--x-x-x-x-x--x-x-x-x-x--x-x-|
|-7--7-7-7-7-7--7-7-7-7-7--7-7-7-7-7--7-7-|
|-5--5-5-5-5-5--5-5-5-5-5--5-5-5-5-5--5-5-|
|-5--5-5-5-5-5--5-5-5-5-5--5-5-5-5-5--5-5-|

VERSE (with distortion)
|--------------------|-----------------|
|--------------------|-----------------|
|--------------------|-----------------|
|---4---------4------|-7-7-7-7-7-7-7-7-|
|-0-2--0----0-2--0---|-5-5-5-5-5-5-5-5-|
|-0-2--0----0-2--0---|-5-5-5-5-5-5-5-5-|

CHORUS
|------------------|-------------------|-------------------|
|------------------|-------------------|-------------------|
|------5/7------10-|------5/7----------|-8--------8--------|
|------x-x-------x-|------x-x----------|-x--------x--------|
|-0----3/5-7-----8-|-0----3/5-7--5-5-5-|-6--------6--------|
|-0--------7-------|-0--------7--5-5-5-|-------------------|

PRE-BRIDGE PART
|-----------------------------------|
|-----------------------------------|
|-7-8-8-7-7-8-8-7-7-8-8-7-7-8-8-7-7-|
|-x-x-x-x-x-x-x-x-x-x-x-x-x-x-x-x-x-|
|-6-6-6-6-6-6-6-6-6-6-6-6-6-6-6-6-6-|
|-----------------------------------|

BRIDGE
|-------------------------------------|
|-------------------------------------|
|-------------------------------------|
|-------------------------------------|
|-0-1-1-4-1-1-0-0-0/7-7-7/12-12-13-12-|
|-0-1-1-4-1-1-0-0-0/7-7-7/12-12-13-12-|

So that's about it. Enjoy!!!
Tap to rate this tab
 
# A B C D E F G H I J K L M N O P Q R S T U V W X Y Z