Song name
# A B C D E F G H I J K L M N O P Q R S T U V W X Y Z

Butterfly Effect - Aisles Of White tab

tuning: CGCFAD (low to hi)

D|-----0----------------------------|
A|-------3-1---1-----1--1h3-3-------|
F|-----------2-----2-----------2----|
C|-0--------------------------------|
G|----------------------------------|
C|----------------------------------|  X4

D|---1-----0-----3-----1---------------------------------------|
A|------------------------theres some quite notes--------------|
F|------------------------that I need to figure out here-------|
C|-0-----0-----0-----0----It may just an effects in the song---|
G|-------------------------------------------------------------|
C|-------------------------------------------------------------|

D|---1-----0-----3--------|
A|------------------------|
F|------------------------|
C|-0-----0-----0----------|
G|------------------------|
C|------------------------|

D|--0-------------------------------|
A|----3-1---1-----1--1h3-3----------|
F|--------2-----2-----------2-------|
C|----------------------------------|
G|----------------------------------|
C|----------------------------------|

D|---1-----0-----3-----1----------------------------------------|
A|------------------------theres some quite notes---------------|
F|------------------------that I need to figure out here--------|
C|-0-----0-----0-----0----It may be just an effects in the song-|
G|--------------------------------------------------------------|
C|--------------------------------------------------------------|

D|---1-----0-----3-----5---------|
A|-----------------------5-3-----|
F|-------------------------------|
C|-0-----0-----0-----0-----------|
G|-------------------------------|
C|-------------------------------|

Please rate, and tell me if theres any mistakes/suggestions you have. Ill try getting 
rest done later =]
Tap to rate this tab
# A B C D E F G H I J K L M N O P Q R S T U V W X Y Z