Guitaretab - guitar tabs
Song name
# A B C D E F G H I J K L M N O P Q R S T U V W X Y Z

Butthole Surfers - Something tab

-------------------------------------------------------------------------------
			     SOMETHING - Butthole Surfers
-------------------------------------------------------------------------------

Tabbed by: Tyler J
Email: full_metal_orange AT hotmail DOT com

Tuning: Standard


The guitar on this song has every string tuned to D.
It's also played with a slide.

Intro: run slide up strings (w/out picking)...

then:

D--0--0--0--3-5--0--0----------------------------|
D--0--0--0--3-5--0--0----------------------------|
D--0--0--0--3-5--0--0---(PUT SLIDE OVER PICKUPS--|
D--0--0--0--3-5--0--0------AND STRUM STRINGS)----|
D--0--0--0--3-5--0--0----------------------------|
D--0--0--0--3-5--0--0----------------------------|

For the verses, run the slide up the fretboard a bit..
[ Tab from: http://www.guitaretab.com/b/butthole-surfers/160198.html ]
The "solo" goes something like this (you decide whether
you want to use the slide or not):

D--9-9-9-9-9-9-9-9\/12-12-12-12-12\-0-|
D--9-9-9-9-9-9-9-9\/12-12-12-12-12\-0-|
D--9-9-9-9-9-9-9-9\/12-12-12-12-12\-0-| w/ ad lib harmonics
D-----------------------------------0-| + open strings
D-------------------------------------|
D-------------------------------------|

After solo, go back to running the slide up the fretboard.

Pretty much the rest of the song varies between the above
themes..

END:

D--0--0--0--3-5--0-0--3--3-3-3-2-0--|
D--0--0--0--3-5--0-0--3--3-3-3-2-0--|
D--0--0--0--3-5--0-0--3--3-3-3-2-0--|
D--0--0--0--3-5--0-0--3--3-3-3-2-0--|
D--0--0--0--3-5--0-0--3--3-3-3-2-0--|
D--0--0--0--3-5--0-0--3--3-3-3-2-0--|

-------------------------------------------------
THE BUTTHOLE SURFERS GUITAR/BASS TAB ARCHIVE:
http://www.islandnet.com/~mustang/1401/index.html
-------------------------------------------------
Related for Something tab