Song name
# A B C D E F G H I J K L M N O P Q R S T U V W X Y Z

Butthole Surfers - Kuntz tab

This is the intro for the song "Kuntz" from the album Locust abortion technician. 
not much more to play in this song but there are some other notes too. Perhaps F or some of 
notes used in the intro could be played. Listen to the record to get timing right.

Repeat this part twice.
e|----------------------3---4---6---4---3------------------------------------|
B|--6---6---6-------6-----------------------6--------------------------------|
G|--------------5------------------------------------------------------------|
D|---------------------------------------------------------------------------|
A|---------------------------------------------------------------------------|
E|---------------------------------------------------------------------------|
I'm not completely sure about this part which comes after the part above, but at least 
of it is right.

e|---8-------8-------8---8---6-----------------------------------------------|
B|---6---6---6---6---6------------9---8---6---8---6------6-------------------|
G|----------------------------------------------------8----------------------|
D|---------------------------------------------------------------------------|
A|---------------------------------------------------------------------------|
E|---------------------------------------------------------------------------|
Tap to rate this tab
 
# A B C D E F G H I J K L M N O P Q R S T U V W X Y Z