Song name
# A B C D E F G H I J K L M N O P Q R S T U V W X Y Z

Butthole Surfers - Tv Star tab

-------------------------------------------------------------------------------
			     TV STAR - Butthole Surfers
-------------------------------------------------------------------------------
Tabbed by: Tyler J
Email: full_metal_orange AT hotmail DOT com

Tuning: Standard


Intro and Verse:

  C           Am          D           F
E--0-----------0-----------2-----------1-----------|
B--1------1----1------1----3------3----1------1----|
G--0----0---0--2----2---2--2----2---2--2----2---2--|
D--2--2--------2--2--------0--0--------3--3--------|
A--3-----------0-----------------------3-----------|
E--------------------------------------------------|

Verse:

Iím in love with a TV star
She drove me home in her Lexus car
Like a dog, but I donít watch her show
Spend my time with the radio
Seen her dancing on the sunset strip
Bell-bottom jeans and her curvy hips
Seen her sittiní there with her boyfriend
Good looking fella but heís lookiní kind of thin

Chorus:

   C       Am
Christina a la la la la
Christina a la la la la
Christina a la la la la
Christina I love you so

Verse: (End last line on D)

Remember that day that we played pool?
I saw your bedroom and we ate barbeque
Barbie came from her trip downtown
Fifty up and forty down
Love you more than the sun in the sky
Gotta kiss and hug you Ďfore I die
Something else that you oughta know too,
Did something weird

Chorus:

Christina a la la la la
Christina a la la la la
Christina a la la la la
Christina I love you so

Solo:

E---------------------------------------------------------------------|
B--------5---------3-3--3-----------------5---------3-3--3--6~-6^8-6--|
G--5~~~-----2~~~---2-2--2-5~~-2~-0--5~~~-----2~~~---2-2--2------------|
D------------------0-0--0---------------------------0-0--0------------|
A---------------------------------------------------------------------|
E---------------------------------------------------------------------|

E------------------------------|
B--5~~--3---------------5------|
G---------5~~~--0-5~~~---------|
D--------------------------7\--|
A------------------------------|
E------------------------------|


Verse:

Iím in love with a TV star
She drove me home in her Lexus car
Like a dog, but I donít watch her show
Spend my time with the radio
Been watching TV as the years go by
I seen Ďem born and I seen Ďem die
Something else that you oughta know too,
I like a girl named Ellen more than you

Chorus:

Christina a la la la la
Christina a la la la la
Christina a la la la la
Christina I love you so
Tap to rate this tab
# A B C D E F G H I J K L M N O P Q R S T U V W X Y Z