Song name
# A B C D E F G H I J K L M N O P Q R S T U V W X Y Z

Butthole Surfers - Butthole Surfer tab

Normal song from the Butthole Surfers. Here ya are, Methuselah.

Intro x2
e|-------------|-0-0-0-0~-|
B|---5-----3---|-0-0-0-0~-|
G|--6-6---4-4--|-0-0-0-0~-|
D|-7---7-5---5-|-0-0-0-0~-|
A|-------------|-0-0-0-0~-|
E|-------------|-0-0-0-0~-|

Riff for the rest of the song
        A                    G
e|---------------------------------|
B|-5-5-5-5-5-5-5-5-3-3-3-3-3-3-3-3-|
G|-6-6-6-6-6-6-6-6-4-4-4-4-4-4-4-4-|
D|-7-7-7-7-7-7-7-7-5-5-5-5-5-5-5-5-|
A|---------------------------------|
E|---------------------------------|

Solo (a couple a times)
e|-----------|
B|--5----3---|
G|---6----4--|
D|-7--7-5--5-|
A|-----------|
E|-----------|

  Enjoy, ya buttmunch.
Tap to rate this tab
# A B C D E F G H I J K L M N O P Q R S T U V W X Y Z