Song name
# A B C D E F G H I J K L M N O P Q R S T U V W X Y Z

Butthole Surfers - Dust Devil tab

DUST DEVIL

by the Butthole Surfers

tabbed by chris lawrence (mustang@islandnet.com)

w/ heavy fuzz + palm mute

E--------------------------------------------------------------|
B--------------------------------------------------------------|
G--------------------------------------------------------------|
D--------------------------------------------------------------|
A--------------------------1-------------------------------1---|
E--3-3-3-3-3-3-1^3-3-3-3-3---3-1^3-3-3-3-3-3-3-1^3-3-3-3-3---3-|

etc

When the drums come in, a 2nd guitar enters playing something
like:

E-------------------------------|
B-------------------------------|
G--0-0-0-0-0-0-0-0-0-0-0-0-3-0--|
D--0-0-0-0-0-0-0-0-0-0-0-0-0-0--| etc
A-------------------------------|
E--3-3-3-3-3-3-3-3-3-3-3-3-3-3--|

Same basic riffs for the verse, you can do this if you want:

E------------------------------|
B------------------------------|
G------------------------------|
D------------------------------|
A--5-5-5-5-5-5-5-5-5-5-5-5-5-5-|
E--3-3-3-3-3-3-3-3-3-3-3-3-6-3-|

FIRST SOLO @ 0:44 -- WILL TAB THIS IN THE NEAR (HA!) FUTURE...

SECOND SOLO @ 1:27

E---------------------------------------------------------------------|
B---------------------------------------------------------------------|
G------3---3-5-b5r^3-0-3-0--3-5-3-5b(5)(5)(5)(5)(5)(5r)(5)(5r)-5~-3-0-|
D--5-5---5------------------------------------------------------------|
A---------------------------------------------------------------------|
E---------------------------------------------------------------------|

E-----------------------------------------------------------------------|
B-----------------------------------------------------------------------|
G--------3---3-5-b5r^3-0-3-0--3-5-3-b5r^3-0-3-b5r^3-0-3-b5r^3-0-3-0---0-|
D--3-5-5---5--------------------------------------------------------3---|
A-----------------------------------------------------------------------|
E-----------------------------------------------------------------------|

E--------------------------------------------------------------------------|
B---------11----13b(13)-13r-11--13-11----11-----------------11-11-11-13-11-|
G--\12-12----12-----------------------12----12--12-10-11-12----------------|
D--------------------------------------------------------------------------|
A--------------------------------------------------------------------------|
E--------------------------------------------------------------------------|

E--------------------------------------------------------------------------|
B--11-11-------------11----------------------11----11-13-13br^11----11-----|
G--------12~~~-10-12----12-10-11-12~-12~~-12----12---------------12----12--|
D--------------------------------------------------------------------------|
A--------------------------------------------------------------------------|
E--------------------------------------------------------------------------|

E-------------17b--|
B--13-13-----------|b~~~~~~ (finger vibrato, bend high, use trem bar if need be)
G------------------|
D------------------|
A------------------|
E------------------|

OUTRO SOLO @ 2:32 -- WILL TAB THIS IN THE FUTURE (IT BEGINS LIKE SOLO 2 THOUGH)


-------------------------------------------------
THE BUTTHOLE SURFERS GUITAR/BASS TAB ARCHIVE:
http://www.islandnet.com/~mustang/1401/index.html
-------------------------------------------------
Tap to rate this tab
# A B C D E F G H I J K L M N O P Q R S T U V W X Y Z