Song name
# A B C D E F G H I J K L M N O P Q R S T U V W X Y Z

Butthole Surfers - Some Dispute Over T-shirt Sales tab

SOME DISPUTE OVER T-SHIRT SALES

by the butthole surfers

tabbed by chris lawrence (mustang@islandnet.com)

Intro:

E----------------------------------------------------------14b-14b-14br^12\10-|
B-----------------------------------------------------------------------------|
G----------------12-12---------12-12---------12b(12)12r-10--------------------|
D--12-12-X-X-X-X-12-12-X-X-X-X-12-12-X-X-X-X----------------------------------|
A--12-12-X-X-X-X-10-10-X-X-X-X-10-10-X-X-X-X----------------------------------|
E--10-10-X-X-X-X-------X-X-X-X-------X-X-X-X----------------------------------|

Repeat simile.

Verse:

E--------------------------------------------------------------|
B--------------------------------------------------------------|
G--------------------------------------------------------------|
D--12-12-X-X-X-X-12-12-X-X-X-X-12-12-X-X-X-X-12-X-X-X-X-X-X-X--|
A--12-12-X-X-X-X-12-12-X-X-X-X-12-12-X-X-X-X-12-X-X-X-X-X-X-X--|
E--10-10-X-X-X-X-10-10-X-X-X-X-10-10-X-X-X-X-10-X-X-X-X-X-X-X--|

End of verse:

E------------|
B------------|
G------------|
D--8-8-8-8-7-|
A--8-8-8-8-7-|
E--6-6-6-6-5-|

Play intro riff again, back into verse...
Play intro riff again, back into verse...

this time at the end of the verse, play:

E----------------------------------|
B----------------------------------|
G----------------------------------| ETC
D--8-8-8-8-7-7-X-X-X-X-7-7-X-X-X-X-|
A--8-8-8-8-7-7-X-X-X-X-7-7-X-X-X-X-|
E--6-6-6-6-5-5-X-X-X-X-5-5-X-X-X-X-|

SOLO:

E------------------------------------------------------------|
B------------------------------------------------------------|
G---------14-12----------------------------------------------|
D--14b~~--------14-12----12----14b~-------------------12b~~--|
A---------------------15----15------15-12----12-15-12--------|
E-----------------------------------------15-----------------|

E-------------------------------------------------------------------------|
B-------------------------------------------------------------------------|
G---------------------------------------13-11-----------------------------|
D-----------12----13br-12----12---------------13-11----------------9----9-|
A--12----12----15---------15----15-12~~-------------13b-11-9-10-11---11---|
E-----15------------------------------------------------------------------|

E------------------------------------------------------------------------|
B------------------------------------------------------------------------|
G------------11-----11-------12-10---------------------------------------|
D--11-9-11b-----11b----11r\--------12-10---------------8----8-12-10-8----|
A----------------------------------------12b-10-8-9-10---10-----------10-|
E------------------------------------------------------------------------|

E---------------------------------------------|
B---------------------------------------------|
G--11-9----------------10-8-------------------|
D-------11-9----------------10-8-----------9--|
A------------11b-9-8-9-----------10b-8-7-8-7--|
E------------------------------------------0--|

Repeat intro, end on:

E----------|
B----------|
G----------|
D--12-12\--|
A--12-12\--|
E--10-10\--|

-------------------------------------------------
THE BUTTHOLE SURFERS GUITAR/BASS TAB ARCHIVE:
http://www.islandnet.com/~mustang/1401/index.html
-------------------------------------------------
Tap to rate this tab
# A B C D E F G H I J K L M N O P Q R S T U V W X Y Z