Guitaretab - guitar tabs
Song name
# A B C D E F G H I J K L M N O P Q R S T U V W X Y Z

Butthole Surfers - Dracula From Houston tab

Butthole Surfers - Dracula from houston

Heard it on scrubs and thought it sounded cool. Enjoy

14/8/2006

Drop-D

Intro and Verse

Guitar One:

E--7--7--7--5--7-7-9-7------------------------------------------|
B--9--9--7--5--7-7-7-7------------------------------------------|
G--9--9--8--6--8-8-8-8------------------------------------------|
D--9--9--9--7--9-9-9-9------------------------------------------|
A---------------------------------------------------------------|
D---------------------------------------------------------------|

               ^This is strummed like a triplet; just listen

Guitar Two: Does something like this to fill it out
[ Tab from: http://www.guitaretab.com/b/butthole-surfers/76799.html ]
E---------------------------------------------------------------|
B---------------------------------------------------------------|
G--(9)\---------------------------------------------------------|
D---9-\---------------------------------------------------------|
A---7-\---------------------------------------------------------|
D---------------------------------------------------------------|

Chorus

Guitar one: This is the main part you can hear; chords

E---------------------------------------------------------------|
B---------------------------------------------------------------|
G---------------------------------------------------------------|
D--2--0--7--9---------------------------------------------------|
A--2--0--7--9---------------------------------------------------|
D--2--0--7--9---------------------------------------------------|

Guitar Two: same chords just different positions

E---------------------------------------------------------------|
B---------10--12------------------------------------------------|
G--9--7---9---11------------------------------------------------|
D--9--7---7---9-------------------------------------------------|
A--7--5---7---9-------------------------------------------------|
D---------7---9-------------------------------------------------|
Related for Dracula From Houston tab