Guitaretab - guitar tabs
Song name
# A B C D E F G H I J K L M N O P Q R S T U V W X Y Z

Butthole Surfers - Whatever I Had A Dream tab

-------------------------------------------------------------------------------
			     WHATEVER (I HAD A DREAM) - Butthole Surfers
-------------------------------------------------------------------------------
Tabbed by: Tyler J
Email: full_metal_orange AT homtail DOT com

Tuning: Standard

This is a fantastic song from the Romeo + Juliet soundtrack (the only place it can be 
so enjoy the tab.

Intro:

E---------            ---------|
B---------            ---------|
G---------            ---------|
D---------            ----0----|
A----7-6--            ------4--|
E--4------            --2------|
[ Tab from: http://www.guitaretab.com/b/butthole-surfers/96443.html ]
C# for vocal section

Solo

                   pinch harmonic
E--------------------*-----------------------------------|
B--------------------*-----------------------------------|
G-----5--6~~---5-6-8-8-6-5-6-6-5---5-6-6~~~--------------| repeat
D--6-----------------------------6-----------------------| w/ variation
A--------------------------------------------4b-4b-4-3\--| @ end...
E--------------------------------------------------------|


-------------------------------------------------
THE BUTTHOLE SURFERS GUITAR/BASS TAB ARCHIVE:
http://www.islandnet.com/~mustang/1401/index.html
-------------------------------------------------
Related for Whatever I Had A Dream tab