Song name
# A B C D E F G H I J K L M N O P Q R S T U V W X Y Z

Butthole Surfers - Booze Tobacco Dope Pussy Cars tab

-------------------------------------------------------------------------------
			     BOOZE, TOBACCO, DOPE, PUSSY, CARS - Butthole Surfers
-------------------------------------------------------------------------------

Tabbed by: Tyler J
Email: full_metal_orange AT hotmail DOT com

Tuning: Standard


Intro:

    Bb  F#  C  Eb

E---6---2---------|
B---6---2---5--8--| Play each chord for about a bar.
G---7---3---5--8--|
D---8---4---5--8--|
A---8---4---3--6--|
E---6---2---------|

Verse:

E---------------------------------|
B--2--------------5---------------|
G--2--------------5---------------| repeat
D--2--------------5---------------|
A--0--------------3---------------|
E-----0-2-0-3-0-0----0-3-0-2-0-0--|

Then:

Eb  C  G  Bb

pause on F for drum machine break.


-------------------------------------------------
THE BUTTHOLE SURFERS GUITAR/BASS TAB ARCHIVE:
http://www.islandnet.com/~mustang/1401/index.html
-------------------------------------------------
Tap to rate this tab
# A B C D E F G H I J K L M N O P Q R S T U V W X Y Z