Song name
# A B C D E F G H I J K L M N O P Q R S T U V W X Y Z

Buzzcocks - Boredom tab

Help us improve GuitareTab! Take a short survey!
-----------------------------------------------------------------------------
			     Bordom - Buzzcocks
-----------------------------------------------------------------------------

Tabbed by:steve
Email:allchavsrgay@hotmail.com

Tuning:Standard

Intro/Verse
e|----------------------------------------------------------------|
B|----------------------------------------------------------------|
G|----------------------------------------------------------------|
D|-2-2-2-5-7-7-7-7-7-5-9-9-9-9-9-9-9-9-9-9------------------------|
A|-2-2-2-5-7-7-7-7-7-5-9-9-9-9-9-9-9-9-9-9------------------------|
E|-0-0-0-3-5-5-5-5-5-3-7-7-7-7-7-7-7-7-7-7------------------------|


pre-chorus
e|-----------------------------------------------------------------|
B|-----------------------------------------------------------------|
G|-5-5-5-5-5-5-5-5-5-5-5-5-5-5-5-5-4-4-4-4-4-4-4-4-4-4-4-4-4-4-4-4-|
D|-5-5-5-5-5-5-5-5-5-5-5-5-5-5-5-5-4-4-4-4-4-4-4-4-4-4-4-4-4-4-4-4-|
A|-3-3-3-3-3-3-3-3-3-3-3-3-3-3-3-3-2-2-2-2-2-2-2-2-2-2-2-2-2-2-2-2-|
E|-----------------------------------------------------------------|

Chorus
e|----------------------------------------------------------|
B|----------------------------------------------------------|
G|---------------------------------3-3-3-3-3-3-3-3-3--------|
D|-2-2-2-2-2-2-2-2-5-5-5-5-5-5-5-5-3-3-3-3-3-3-3-3-3--------|
A|-2-2-2-2-2-2-2-2-5-5-5-5-5-5-5-5-1-1-1-1-1-1-1-1-1--------|
E|-0-0-0-0-0-0-0-0-3-3-3-3-3-3-3-3--------------------------|


Order:
Intro      X4
Pre-Chorus X1
Chorus     X1
Verse      X3
Pre-Chorus X1
Chorus     X1
Verse      X3
Pre-Chorus X1
Chorus     X1
Verse      X2
Pre-Chorus X1
Chorus     X1
Verse      X2
Pre-Chorus X1
Chorus     X1
Verse      X2
Pre-Chorus X1
Chorus     X1
Verse      X2
Pre-Chorus X1
Chorus     X1

Enjoy!
Related for Boredom tab